Song name
# A B C D E F G H I J K L M N O P Q R S T U V W X Y Z

Sleeping With Sirens - Roger Rabbit tab

Verse
E|----------2--------3---------5/2------------2----|
B|-------------------------------------------------|
G|-------4------------------4------------4---------|
D|----2-----------5------5------------2----2-------|
A|-------------3-----------------------------------|
E|-------------------------------------------------|


Chorus
E|--0--2--0--0-----------------------------------------------|
B|--3--3--0--1-----------------------------------------------|
G|--0--4--0--2-----------------------------------------------|
D|--2--4--2--2-----------------------------------------------|
A|--3--2--2--0-----------------------------------------------|
E|--x--x--0--x-----------------------------------------------|




Bridge
E|--0--2--0--0--|
B|--3--3--0--1--|
G|--0--4--0--2--|
D|--2--4--2--2--|
A|--3--2--2--0--|
E|--x--x--0--x--|


Chorus
E|--0--2--0--0-----------------------------------------------|
B|--3--3--0--1-----------------------------------------------|
G|--0--4--0--2-----------------------------------------------|
D|--2--4--2--2-----------------------------------------------|
A|--3--2--2--0-----------------------------------------------|
E|--x--x--0--x-----------------------------------------------|


Tap to rate this tab
 
# A B C D E F G H I J K L M N O P Q R S T U V W X Y Z