Song name
# A B C D E F G H I J K L M N O P Q R S T U V W X Y Z

Sleeping With Sirens - James Dean And Audrey Hepburn tab

James Dean & Audrey Hepburn 
from 'If you were a movie, this would be your soundtrack'

(this is my first tab)

(E,A,D,G,A,D)

|--0---------0--|    |----0----------0-|
|--0---------0--|    |----0----------0-|
|--4---------4--|    |----6----------4-|
|--4---------5--|    |----7----------4-|
|--2---------5--|    |----7----------2-|
|--x---------3--|    |----5------------|
            on the last time he hits this too 
                   (cant imagine being anywhere else but here...)


|---0------------0-0------0---------0-------0----|
|---0------------0-0------0---------0-------0----|
|---4------------4-2------4---------6-------0----|
|---4------------4-2------5---------7-------7----|
|---2------------2-0------5---------7-------7----|
|-------------------------3---------5-------0----|
 Verse. It ends on the same chord it starts on. 


|--0-------0-------0-------0------|
|--0-------0-------0-------0------|
|--0-------4-------4-------6------|
|--2-------5-------4-------7------|
|--2-------5-------2-------7------|
|--0-------3---------------5------|
  Chorus.                              then back to the very first part. 


|---0------0------0-----|
|---0------0------0-----|
|---0------4------7-----|
|---2------5------7-----|
|---2------5------5-----|
|---0------3------------|
   La da da part                      That is every part. Enjoy!
Tap to rate this tab
# A B C D E F G H I J K L M N O P Q R S T U V W X Y Z