Song name
# A B C D E F G H I J K L M N O P Q R S T U V W X Y Z

Sleeping With Sirens - Stomach Tied In Knots tab

This is my first tab. All the others were wrong so I figured this out from a guy playing 
it on youtube and I think itís pretty much right. http://www.youtube.com/watch?v=28KRsVAoBcs
This is just the notes and the order. Listen to the song for the strumming pattern.
Drop D


"Stomach's tied in knots"
E|-------------|
B|-------------|
G|--6--9--2----| x2
D|--6--9--2----|
A|--4--7--0----|
D|--4--7--0----|

"away..."
E|---------------|
B|---------------|
G|--9--11--6--0--|
D|--9--11--6--0--| x1
A|--7-- 9--4--0--|
D|--7-- 9--4--0--|

"without you now"
E|---------|
B|---------|
G|--6-9-2--| x4
D|--6-9-2--|
A|--4-7-0--|
D|--4-7-0--|

"have myself to blame"
E|--------------|
B|--------------|
G|--6--2--9--0--| *muted* x1
D|--6--2--9--0--|
A|--4--0--7--0--|
D|--4--0--7--0--|

"Without you"
E|---------|
B|---------|
G|--6-9-2--| x2
D|--6-9-2--|
A|--4-7-0--|
D|--4-7-0--|

"stomachís tied in knots"
E|-------------|
B|-------------|
G|--6--9--2----| x2
D|--6--9--2----|
A|--4--7--0----|
D|--4--7--0----|

"away..."
E|---------------|
B|---------------|
G|--6--11--6--0--|
D|--6--11--6--0--| x1
A|--4-- 9--4--0--|
D|--4-- 9--4--0--|

"without you now"
E|---------|
B|---------|
G|--6-9-2--| x4
D|--6-9-2--|
A|--4-7-0--|
D|--4-7-0--|

"have myself to blame"
E|--------------|
B|--------------|
G|--6--2--9--0--| x4
D|--6--2--9--0--|
A|--4--0--7--0--|
D|--4--0--7--0--|

*Claps*

"without you now"
E|---------|
B|---------|
G|--6-9-2--| x8
D|--6-9-2--|
A|--4-7-0--|
D|--4-7-0--|

"without you, Oh oh"
E|--------|
B|--------|
G|--6--0--| x1
D|--6--0--|
A|--4--0--|
D|--4--0--|
Tap to rate this tab
 
# A B C D E F G H I J K L M N O P Q R S T U V W X Y Z