Song name
# A B C D E F G H I J K L M N O P Q R S T U V W X Y Z

Sleeping With Sirens - James Dean And Audrey Hepburn tab

James Dean and Audrey Hepburn
Tuning: EADGAD
Sleeping With Sirens
If You Were a Movie, This Would Be Your Soundtrack (2012)
I picked this up by ear, it sounds right. If you have any corrections feel free to 
E-Mail me at Joeym5624@hotmail.com

Intro: (0:00  0:30)
|--0---------0--|    |----0----------0-|
|--0---------0--|    |----0----------0-|
|--4---------4--|    |----6----------4-|
|--4---------5--|    |----7----------4-|
|--2---------5--|    |----7----------2-|
|--x---------3--|    |----5------------|

Verse: (0:31 - 0:56)
|---0------------0-0------0---------0-------0------|
|---0------------0-0------0---------0-------0------|
|---4------------4-2------4---------6-------0------|
|---4------------4-2------5---------7-------7------|
|---2------------2-0------5---------7-------7------|
|-------------------------3---------5-------0------|
  Hold           |---8 Times each------------------|     Hold

Chorus: (0:57  1:36)
|--0-------0-------0-------0------|
|--0-------0-------0-------0------|
|--0-------4-------4-------6------|
|--2-------5-------4-------7------|
|--2-------5-------2-------7------|
|--0-------3---------------5------|

Verse: (1:37  2:01)
|---0------------0-0------0---------0-------0------|
|---0------------0-0------0---------0-------0------|
|---4------------4-2------4---------6-------0------|
|---4------------4-2------5---------7-------7------|
|---2------------2-0------5---------7-------7------|
|-------------------------3---------5-------0------|
  Hold           |---8 Times each------------------|     Hold




Chorus: (2:02  2:29)
|--0-------0-------0-------0------|
|--0-------0-------0-------0------|
|--0-------4-------4-------6------|
|--2-------5-------4-------7------|
|--2-------5-------2-------7------|
|--0-------3---------------5------|

Bridge: (2:30  3:17)
|---0------0------0-----|
|---0------0------0-----|
|---0------4------7-----|
|---2------5------7-----|
|---2------5------5-----|
|---0------3------------|

Chorus: (3:18  4:10)
|--0-------0-------0-------0------|
|--0-------0-------0-------0------|
|--0-------4-------4-------6------|
|--2-------5-------4-------7------|
|--2-------5-------2-------7------|
|--0-------3---------------5------|

Outro: (4:11  4:15)
|--0--|
|--0--|
|--0--|
|--2--|
|--2--|
|--0--|

Hold(Fade out)
Tap to rate this tab
# A B C D E F G H I J K L M N O P Q R S T U V W X Y Z