Song name
# A B C D E F G H I J K L M N O P Q R S T U V W X Y Z

Sleeping With Sirens - If Im James Dean Then Youre Audrey Hepburn Acoustic tab

This is how to play If "I'm James Dean, You're Audrey Hepburn" Acoustic.
The tuning is weird D A C# F# A D .
Listen to the song for the rhythm.
*****************************************************************************


Intro (0:00-0:30)
D -0------0------0------0------0------0~--|
A -0------0------0------0------0------0~--|
F#-8------3------8------3------5------1~--|
C#-8------4------8------4------6------1~--|
A -9------5------9------5------7------2~--|
D -9------5------9------5------7------2~--|



Verse (0:31-58)
D -0------/0------0------0------0--|
A -0------/0------0------0------0--|
F#-8------/5------3------5------1--|
C#-8------/6------4------6------1--|
A -9------/7------5------7------2--|  
D -9------/7------5------7------2--|

D -0------/0------0------0------0~--|
A -0------/0------0------0------0~--|
F#-8------/5------3------5------1~--|
C#-8------/6------4------6------1~--|
A -9------/7------5------7------2~--|  
D -9------/7------5------7------2~--|




Chorus (0:59-1:23)
D -0------0------0------0--|
A -0------0------0------0--|
F#-1------3------8------5--|
C#-1------4------8------6--|
A -2------5------9------7--|   (2x)
D -2------5------9------7--|



Post-Chorus (1:24-1:35)
D -0------0------0--|
A -0------0------0--|
F#-8------3------5--|
C#-8------4------6--|
A -9------5------7--|
D -9------5------7--|



Verse 2 (1:36-2:03)
D -0------/0------0------0------0--|
A -0------/0------0------0------0--|
F#-8------/5------3------5------1--|
C#-8------/6------4------6------1--|
A -9------/7------5------7------2--|  
D -9------/7------5------7------2--|

D -0------/0------0------0------0~--|
A -0------/0------0------0------0~--|
F#-8------/5------3------5------1~--|
C#-8------/6------4------6------1~--|
A -9------/7------5------7------2~--|  
D -9------/7------5------7------2~--|



Chorus (2:04-2:28)
D -0------0------0------0--|
A -0------0------0------0--|
F#-1------3------8------5--|
C#-1------4------8------6--|
A -2------5------9------7--|   (2x)
D -2------5------9------7--|



Breakdown (2:29-3:18)
D -0~------0~------0~-|
A -0~------0~------0~-|
F#-1~------3~------0~-|
C#-1~------4~------x--|
A -2~------5~------0~-|   (8x)
D -2~------5~------0~-|



Chorus (3:19-3:42)
D -0------0------0------0--|
A -0------0------0------0--|
F#-1------3------8------5--|
C#-1------4------8------6--|
A -2------5------9------7--|   (2x)
D -2------5------9------7--|



Outro (3:43-4:16)
D -0------0------0------0--|
A -0------0------0------0--|
F#-1------3------8------5--|
C#-1------4------8------6--|
A -2------5------9------7--|
D -2------5------9------7--|

D -0------0------0------0------0~--|
A -0------0------0------0------0~--|
F#-1------3------8------5------3~--|
C#-1------4------8------6------4~--|
A -2------5------9------7------5~--|
D -2------5------9------7------5~--|


************************************

I hope this helps! :3
Tap to rate this tab
# A B C D E F G H I J K L M N O P Q R S T U V W X Y Z