Song name
# A B C D E F G H I J K L M N O P Q R S T U V W X Y Z

Sleeping With Sirens - Stomach Tied In Knots tab

Drop D
Dadgbe
well i learned this by a video, and i noticed the tabs on here werent fully correct so i
decided to write one,
x= dead note
p= palm mute


Oh my stomachs tied in knots i'm afraid of what i might find if you wanna talk tonight
woah oh, see the problem isn't you it's me i can tell i've seen it time after time, and
i'll push you....
e----------------------------------------------------------------------|
b----------------------------------------------------------------------|
g-x-6-----x-6-----x-9-----x-9-----x-2-----x-2-----x-2----x-2--2-L------|
d-x-6-----x-6-----x-9-----x-9-----x-2-----x-2-----x-2----x-2--2-L------|
a-4-4-----4-4-----7-7-----7-7-----0-0-----0-0-----0-0----0-0--0-L------|
d-4-4-x-x-4-4-x-x-7-7-x-x-7-7-x-x-0-0-x-x-0-0-x-x-0-0-xx-0-0--0-L------|
away, mmmmm i get so afraid, oh no
e--------------------------------------|
b--------------------------------------|
g-12-12--14-14-14-14-14-14-------------|
d-12-12--14-14-14-14-14-14-------------|
a-10-10--12-12-12-12-12-12-------------|
d-10-10--12-12-12-12-12-12-------------|

e------|
b------|
g-2----|
d-2----| x10
a-0----|
d-0----|

and i can't live without you now, woah, I can't even live with myself woah oh oh, and i
can't live without you now, woah, i want you and nobody else woah oh oh

e---------------------------------|
b---------------------------------|
g-6-6-9-9-9-9-9-2-2-2-2-2-2-2-2---|
d-6-6-9-9-9-9-9-2-2-2-2-2-2-2-2---|
a-4-4-7-7-7-7-7-0-0-0-0-0-0-0-0---|
d-4-4-7-7-7-7-7-0-0-0-0-0-0-0-0---|



I only have my self to blame, but do you think we can start again? x4
because i cant live without you now,




e------------------------------------------------------------|
b------------------------------------------------------------|
g-p6---------------------------------------------------------|
d-p6-6-6-6-6-6-6-2-2-2-2-2-2-2-9-9-9-9-9-9-9-0-0-0-0-0-0-0---|
a-p4-4-4-4-4-4-4-0-0-0-0-0-0-0-7-7-7-7-7-7-7-0-0-0-0-0-0-0---|
d-p4-4-4-4-4-4-4-0-0-0-0-0-0-0-7-7-7-7-7-7-7-0-0-0-0-0-0-0---|
Tap to rate this tab
# A B C D E F G H I J K L M N O P Q R S T U V W X Y Z