Song name
# A B C D E F G H I J K L M N O P Q R S T U V W X Y Z

Sleeping With Sirens - A Trophy Fathers Trophy Son tab

  A Trophy Father's Trophy Son       
               Sleeping With Sirens
          Key
Palm Muted: . or pm
Slide: /
Held Note: ~
                  Intro
D|--------------------------------------|
A|--------------------------------------|
F|--------------------------------------|
C|----7------9--------------------------|
G|----4------7--------------------------|
C|----4pm----7pm------------------------|

               Chorus
D|---5---5---5---7----------------------|
A|----5---5---5---5---------------------|
F|-----6---6---6---6--------------------|X3
C|--------------------------------------|
G|--------------------------------------|
C|--------------------------------------|

D|-------------------------------------------------------------------------|
A|-------------------------------------------------------------------------|
F|------------------------------------------------------------9------------|
C|---7--11-7--9------7--11-7--9------7--11-7--9------7--11-7---------------|
G|-------------------------------------------------------------------------|
C|-------------------------------------------------------------------------|

          Chorus
D|---5---5---5---7----------------------|
A|----5---5---5---5---------------------|
F|-----6---6---6---6--------------------|X3
C|--------------------------------------|
G|--------------------------------------|
C|--------------------------------------|

D|-------------------------------------------------------------------------|
A|-------------------------------------------------------------------------|
F|-------------------------------------------------------------------------|
C|--4------7------0-0-0-0-0-0-0-0-0-0-0-0-0-0~-----------------------------|
G|--4-X9---7-X4---0-0-0-0-0-0-0-0-0-0-0-0-0-0~-----------------------------|
C|--4------7------0-0-0-0-0-0-0-0-0-0-0-0-0-0~-----------------------------|
         Chorus 2
D|---5--4---------5--7--9--7----5--4-----------5--4---------------------|
A|--------5--5/7----------------------5--------------5------------------|
F|---------------------------------------6---------------6--------------|X2
C|----------------------------------------------------------------------|
G|----------------------------------------------------------------------|
C|----------------------------------------------------------------------|

D|------------------------|
A|------------------------|
F|----9/16/6--------------|
C|------------------------|
G|------------------------|
C|------------------------|

D|---------------------------------------------------------------|
A|---------------------------------------------------------------|
F|---------------------------------------------------------------|
C|-7-7-7-7-7-7-7-7-7-7-7-7-7-7-7-7-7-7-9-9-9-9-9-9-9-------------|
G|-7-7-7-7-7-7-7-7-7-7-7-7-7-7-7-7-7-7-9-9-9-9-9-9-9-------------|
C|-7-7-7-7-7-7-7-7-7-7-7-7-7-7-7-7-7-7-9-9-9-9-9-9-9-------------|
   . . . . . . . . . . . . . . . . . . . . . . . . . 

D|-------------------------------------------------------------------------|
A|-------------------------------------------------------------------------|
F|-------------------------------------------------------------------------|
C|---7--11-7--9------7--11-7--9------7--11-7--9------7--11-7--9------------|
G|-------------------------------------------------------------------------|
C|-------------------------------------------------------------------------|


D|---------------------------------------------------------------|
A|---------------------------------------------------------------|
F|---------------------------------------------------------------|
C|-7-7-7-7-7-7-7-7-7-7-7-7-7-7-7-7-7-7-9-9-9-9-9-9-9-------------|
G|-7-7-7-7-7-7-7-7-7-7-7-7-7-7-7-7-7-7-9-9-9-9-9-9-9-------------|
C|-7-7-7-7-7-7-7-7-7-7-7-7-7-7-7-7-7-7-9-9-9-9-9-9-9-------------|
   . . . . . . . . . . . . . . . . . . . . . . . . . 

D|-------------------------------------------------------------------------|
A|-------------------------------------------------------------------------|
F|------------------------------------------------------------9------------|
C|---7--11-7--9------7--11-7--9------7--11-7--9------7--11-7---------------|
G|-------------------------------------------------------------------------|
C|-------------------------------------------------------------------------|


          Chorus
D|---5---5---5---7----------------------|
A|----5---5---5---5---------------------|
F|-----6---6---6---6--------------------|X4
C|--------------------------------------|
G|--------------------------------------|
C|--------------------------------------|


D|-------------------------------------------------------------------------|
A|-------------------------------------------------------------------------|
F|-------------------------------------------------------------------------|
C|--------0-0-0-0-0-0-0-0-0-0-0-0-0-0~-------------------------------------|
G|--------0-0-0-0-0-0-0-0-0-0-0-0-0-0~-------------------------------------|
C|--------0-0-0-0-0-0-0-0-0-0-0-0-0-0~-------------------------------------|

         Chorus 2
D|---5--4---------5--7--9--7----5--4-----------5--4---------------------|
A|--------5--5/7----------------------5--------------5------------------|
F|---------------------------------------6---------------6/9------------|X4
C|----------------------------------------------------------------------|
G|----------------------------------------------------------------------|
C|----------------------------------------------------------------------|
                                      Slide to 9 on fourth time only

D|--------------------------------------------------------------------|
A|--------------------------------------------------------------------|
F|--------------------------------------------------------------------|
C|---4-4-4-4-4-4-4-4-4-4-6-6-6-6-6-7-7-7-7-7-7-7-7-7-7-9-9-9-9-9------|X4
G|---4-4-4-4-4-4-4-4-4-4-6-6-6-6-6-7-7-7-7-7-7-7-7-7-7-9-9-9-9-9------|
C|---4-4-4-4-4-4-4-4-4-4-6-6-6-6-6-7-7-7-7-7-7-7-7-7-7-9-9-9-9-9------|
     . . . . . . . . . . . . . . . . . . . . . . . . . . . . . .

D|-----------------------------------------------------------------|
A|-----------------------------------------------------------------|
F|-----------------------------------------------------------------|
C|-00-0-000---00-0-000---00-0-000---00-0-000-----------------------|
G|-00-0-000---00-0-000---00-0-000---00-0-000-----------------------|
C|-00-0-000---00-0-000---00-0-000---00-0-000-----------------------|

D|--------------------------------------|
A|--------------------------------------|
F|--------------------------------------|
C|----7------9--------------------------|
G|----4------7--------------------------|
C|----4pm----7pm------------------------|

         Alternative Chorus 
D|---5--4---------5--4----------5--4--------5--7--9/12------------------|
A|---------5------------5------------5--5/7-----------------------------|
F|-----------6------------6---------------------------------------------|X3
C|----------------------------------------------------------------------|
G|----------------------------------------------------------------------|
C|----------------------------------------------------------------------|

       End
D|---5--4---------5--4--------------------------------------------------|
A|---------5------------5-----------------------------------------------|
F|-----------6------------6/9-------------------------------------------|
C|----------------------------------------------------------------------|
G|----------------------------------------------------------------------|
C|----------------------------------------------------------------------|
Tap to rate this tab
 
# A B C D E F G H I J K L M N O P Q R S T U V W X Y Z