Song name
# A B C D E F G H I J K L M N O P Q R S T U V W X Y Z

Sleeping With Sirens - If You Cant Hang tab

If You Can't Hang by Sleeping With Sirens
Standard Tuning: e B G D A E

Intro:

| Lead Guitarist
(E String) F5 - A5 - E5

| Rhythm Guitarist
(A String) F5 - A5 - E5

* A - C *

| Lead Guitarist

e|--9h10h9--------------10h12h10--/--7--9--------x--x---x--x---x---x---------|
B|-----------10h12h10----------------------------6--8--10--8--11--10---------|
G|-----------------------------------------------7--7---7--7---7---7---------|
D|-----------------------------------------------x--x---x--x---x---x---------|
A|-----------------------------------------(x2)--x--x---x--x---x---x---------|
E|-----------------------------------------------x--x---x--x---x---x---------|

| Rhythm Guitarist *Strum Up and Down*
D5 (x12) - F5 (x4) - C5 (x12) - F5 (x4)- Bb (x20) - C (x8)

Verse 1:

"Met a girl at seventeen, thought she meant the world to me.."

| Lead Guitarist

e|---------------------------------------------------------------------------|
B|--6--10--3--8--6--10--3--8b10----------------------------------------------|
G|---------------------------------------------------------------------------|
D|---------------------------------------------------------------------------|
A|---------------------------------------------------------------------------|
E|---------------------------------------------------------------------------|

| Rhythm Guitarist
Stand By

"I'd never thought you'd stay, it's okay.."

|Lead Guitarist

e|--12-------12-------12-----15-------15-------15----10-------10-------10----|
B|-----13-------13-------13-----13-------13-------13----13-------13-------13-|
G|--------14-------14--------------14-------14-------------14-------14-------|
D|---------------------------------------------------------------------------|
A|---------------------------------------------------------------------------|
E|---------------------------------------------------------------------------|

e|--12------12-------12-----12-------12-------12----15-------15-------15------|
B|-----13------13-------13-----13-------13-------13----13-------13-------13---|
G|--------14------14--------------14-------14-------------14-------14---------|
D|----------------------------------------------------------------------------|
A|----------------------------------------------------------------------------|
E|----------------------------------------------------------------------------|

e|--10v----------------------------------------------------------------------|
B|---------------------------------------------------------------------------|
G|---------------------------------------------------------------------------|
D|---------------------------------------------------------------------------|
A|---------------------------------------------------------------------------|
E|---------------------------------------------------------------------------|

| Rhythm Guitarist
Bb5 (x16) - G5 (x16) - D5 (x32) - Bb5 (x16) - G5 (x16)

Pre- Chorus:

| Lead Guitarist
1st Set:
*Stand By in 1st Set*
e|---8--10-------------------------------------------------------------------|
B|--10--10-------------------------------------------------------------------|
G|---x--x--------------------------------------------------------------------|
D|---x--x--------------------------------------------------------------------|
A|---x--x--------------------------------------------------------------------|
E|---x--x--------------------------------------------------------------------|

| Rhythm Guitarist
D5 (x16) - Bb5 (x16)
D5 (x16) - Bb5 (x16)

Chorus:

| Lead Guitarist

e|--9h10h9--------------10h12h10--/--7--9--------x--x---x--x---x---x---------|
B|-----------10h12h10----------------------------6--8--10--8--11--10---------|
G|-----------------------------------------------7--7---7--7---7---7---------|
D|-----------------------------------------------x--x---x--x---x---x---------|
A|-----------------------------------------(x2)--x--x---x--x---x---x---------|
E|-----------------------------------------------x--x---x--x---x---x---------|

| Rhythm Guitarist *Strum Up and Down*
D5 (x12) - F5 (x4) - C5 (x12) - F5 (x4)- Bb (x20) - C (x8)

"You're the lowest type, you're the lowest."
Bb5 (x8) - G5 (x8)

Verse 2:

| Lead Guitarist

e|--12/13--12----------12/13--12----------12/13--12--------------------------|
B|-------------13--10-------------13--15-------------13--10--13--15----------|
G|---------------------------------------------------------------------------|
D|---------------------------------------------------------------------------|
A|--------------------------------------------------------------------(x2)---|
E|---------------------------------------------------------------------------|

| Rhythm Guitarist
Bb5 (x16) - G5 (x16) - D5 (x16) - C5 (x16------|
A5 (x16) - G5 (x16) - F5 (x16) - E5 (x12) - D5-| (x4)

= REPEAT "I'd never though you'd stay, It's okay.." =
= REPEAT CHORUS =

Bridge:

"I don't want to get this confused.."
D5 - Bb5 - G5 (x4)

"Met a girl at 23.."

| Lead Guitarist

e|---------------------------------------------------------------------------|
B|--6--10--3--8--6--10--3--8b10----------------------------------------------|
G|---------------------------------------------------------------------------|
D|---------------------------------------------------------------------------|
A|---------------------------------------------------------------------------|
E|---------------------------------------------------------------------------|

| Rhythm Guitarist
Stand By

= REPEAT "I'd never though you'd stay, It's okay.." =
= REPEAT CHORUS =

Ending:

| Lead Guitarist
1st Set:
*Stand By in 1st Set*
e|---8--10-------------------------------------------------------------------|
B|--10--10-------------------------------------------------------------------|
G|---x--x--------------------------------------------------------------------|
D|---x--x--------------------------------------------------------------------|
A|---x--x--------------------------------------------------------------------|
E|---x--x--------------------------------------------------------------------|

| Rhythm Guitarist
D5 (x16) - Bb5 (x16)
D5 (x16) - Bb5 (x16)

Legend:
" / " - Slide
" h " - Hammer On
" v " - Vibrate
" x " - Do Not Strum String

Listen to the song for the right timing and strumming patterns! :)
Tap to rate this tab
# A B C D E F G H I J K L M N O P Q R S T U V W X Y Z