Song name
# A B C D E F G H I J K L M N O P Q R S T U V W X Y Z

Sleeping With Sirens - If Im James Dean Then Youre Audrey Hepburn tab

Full tab LEAD drop C# figured by watching them live and ear ill do the rhythm later

(LEAD)

INTRO

C#|-57777------------------|  |-----------------------------|
G#|-57777---------------10~|  |12--|15--|19--|--------------|
C#|-57777---------9h10p9---|X2|10X8|14X8|17X8|--17----------|
F#|------------9p7---------|  |---------------17--17/19-----|
A#|------8h10p8------------|  |-----------------------------|
D#|------------------------|  |-----------------------------|

C#|-57777------------------|  |---------------------------------------------|
G#|-57777---------------10~|  |12--|15--|19---|-----------------------------|
C#|-57777---------9h10p9---|X2|10X8|14X8|17X12|-----------------------------|
F#|------------9p7---------|  |----------------17/19------------------------|
A#|------8h10p8------------|  |----------------------17X8-15X8-12B13--------|
D#|------------------------|  |---------------------------------------------|

VERSE

C#|----------------------------------------|
G#|----------------------------------------|
C#|33333333--------33333333----------------|
F#|2222222222222222222222224444444422222222|X2
A#|1111111111111111111111111111111111111111|
D#|--------00000000------------------------|

PRE CHORUS(WITH DELAY)

C#|--------------|
G#|--------------|
F#|-7------------|
C#|5------------7|
A#|--5-------8-5-|
D#|---5-7H8P7----|

CHORUS

C#|-----------------------|---------------------------------------------------|
G#|-----------------10|---|---------------------------------------------------|
C#|5|---|7---|14---|12|X16|5X--|7---|-------------------------------------19~-|
F#|3|X16|5X16|12X16|------|3X16|5X16|-------------------------------17--16~---|
A#|-----------------------|------------13-----17-----17-----17181715--15------|
D#|-----------------------|----------12--12/15--15/17--17/15------------------|

VERSE 2

C#|(55----55---)55------55x5------------------------------------------------|
G#|(55----55---)55------55x5------------------------------------------------|
C#|(55-99-55-9~)55------55x5------19------------19--------------------------|
F#|(---55----5~)- 9BU9BU----9BU~~---17--------17--1719----------------------|
A#|(-----------)--7--7------7~~~~-----17----17--------17--------------------|
D#|(-----------)------------------------1915------------20-15/20~-----------|

C#|-55------55-----55-------55x5---------------------------------------------|
G#|-55------55-----55-------55x5---------------------------------------------|
C#|-55------55-----55-------55x5------19------------19-----------------------|
F#|---9BU9BU--9BU~--- 9BU9BU----9BU~~---17--------17--1719-------------------|
A#|---7--7----9BU~----7--7------7~~~~-----17----17--------17-----------------|
D#|-----------------------------------------1915------------20-15/20~--------|

C#|-55------55-----55-------55x5---------------------------------------------|
G#|-55------55-----55-------55x5---------------------------------------------|
C#|-55------55-----55-------55x5------19------------19-----------------------|
F#|---9BU9BU--9BU~--- 9BU9BU----9BU~~---17--------17--1719-------------------|
A#|---7--7----9BU~----7--7------7~~~~-----17----17--------1720---------------|
D#|-----------------------------------------1915-----------------------------|

C#|-----------------------|---------------------|
G#|-----------------10|---|----------------10---|
C#|5|---|7---|14---|12|X16|5X--|7---|14---|12X16|
F#|3|X16|5X16|12X16|------|3X16|5X16|12X16|-----|
A#|-----------------------|---------------------|
D#|-----------------------|---------------------|

VERSE 3

C#|(-------)------------------------------|
G#|(----7--)------------------------------|
C#|(9-9--X6)------------------------------|
F#|(-5-----)-12H14-------12H14------------|X4
A#|(-------)------12H13-------12H13-----15|
D#|(-------)-----------15----------15-12--|

FINAL CHORUS

C#|--------------------------------------------------------------------------|
G#|-12P0-10P0-10H12-12P0-10P0------------------------------------------------|
C#|--------------------------12P0-10P0-9H10P9P0------------------------------|
F#|--------------------------------------------------------------------------|
A#|--------------------------------------------------------------------------|
D#|--------------------------------------------------------------------------|

C#|---------------------------------------------------------------------------|
G#|-12P0-10P0-10H12-12P0-10P0-------------------------------------------------|
C#|--------------------------12P0-10P0-14P0-9P0-------------------------------|
F#|---------------------------------------------------------------------------|
A#|---------------------------------------------------------------------------|
D#|---------------------------------------------------------------------------|

C#|--------------------------------------------------------------------------|
G#|-12P0-10P0-10H12-12P0-10P0------------------------------------------------|
C#|--------------------------12P0-10P0-7/9-----------------------------------|
F#|--------------------------------------------------------------------------|
A#|--------------------------------------------------------------------------|
D#|--------------------------------------------------------------------------|

C#|--------------------------------------------------------------------------|
G#|-12P0-10P0-10H12-12P0-10P0------------------------------------------------|
C#|--------------------------12P0-10P0-9H10P9P0------------------------------|
F#|--------------------------------------------------------------------------|
A#|--------------------------------------------------------------------------|
D#|--------------------------------------------------------------------------|
                                      X4
Tap to rate this tab
# A B C D E F G H I J K L M N O P Q R S T U V W X Y Z