Song name
# A B C D E F G H I J K L M N O P Q R S T U V W X Y Z

Sleeping With Sirens - A Trophy Fathers Trophy Son tab

"Father, Father tell me where have you been"
D#---------|
A#---------|
F#-4----7--|
C#-7----9--|
G#-4----7--|
C#-4----7--|

"It's been hell not having you here"--"And you don't seem to care"
D#-5----5----5----7---4---7--5---5---5----7-------|
A#---5----5----5---5---5---5---5---5---5----5-----|
F#-----6----6----6---6---6--6----6---6---6---6----|
C#------------------------------------------------|
G#------------------------------------------------|
C#------------------------------------------------|

"When I go to sleep at night, you're not there"--"When I go to sleep at night, do you care?"
D#---------------------------------------|
A#---------------------------------------|
F#-------------------------------------9-|
C#-9-11-9-9--x-x--9-11-9-9--x-x-9-11-9-7-|
G#-7-7--7-7--x-x--7--7-7-7--x-x--7-7-7-7-|
C#-7-7--7-7--x-x--7--7-7-7--x-x--7-7-7-7-|

"Do you even miss us?"--"Your bottles your mistress"
[Each chord six times/ Palm Muted]
D#--------|
A#--------|
F#-4----7-|
C#-7----9-|
G#-4----7-|
C#-4----7-|

"I need to know, I need to know, oh"
D#-----------------------0-|
A#-----------------------3-|
F#-----------------------2-|
C#-0-0-0-0-0-0-0-0-0-0-0-0-|
G#-0-0-0-0-0-0-0-0-0-0-0-0-|
C#-0-0-0-0-0-0-0-0-0-0-0-0-|
   . . . . . . . . . . .

"Why are you walking away?"--"Is this how it is?"
D#-5----5----5----7---4---7--5---5---5----7--------|
A#---5----5----5---5---5---5---5---5---5----5------|
F#-----6----6----6---6---6--6----6---6---6---6-----|
C#-------------------------------------------------|
G#-------------------------------------------------|
C#-------------------------------------------------|

"I will try to understand"
D#------------|
A#------------|
F#------------|
C#-11--12--6--|
G#-7---9---4--|
C#-7---9---4--|

"Father father, tell me where are you now?"
[Five Times First Chord Seven Times Second]
D#--------|
A#--------|
F#-4----7-|
C#-7----9-|
G#-4----7-|
C#-4----7-|

"It's been hell not you having you"
D#-------------------------------------|
A#-------------------------------------|
F#-----------------------------------9-|
C#-9-11-9-9-x-x-9-11-9-9-x-x-9-11--9-7-|
G#-7-7-7-7--x-x--7-7-7-7--x-x--7-7-7-7-|
C#-7-7-7-7--x-x--7-7-7-7--x-x--7-7-7-7-|

"Last thing I heard, you're fed up, you're skipping town"
[Five Times First Chord Seven Times Second]
D#---------|
A#---------|
F#-4----7--|
C#-7----9--|
G#-4----7--|
C#-4----7--|


"With no note telling where"
D#----------------------------------------|
A#----------------------------------------|
F#--------------------------------------9-|
C#-9-11-9-9--x-x--9-11-9-9--x-x--9-11-9-7-|
G#-7-7--7-7--x-x--7-7--7-7--x-x--7-7--7-7-|
C#-7-7--7-7--x-x--7-7--7-7--x-x--7-7--7-7-|

"When I go to sleep at night"
D#-5----5----5----7---4---7--5---5---5----7--------|
A#---5----5----5---5---5---5---5---5---5----5------|
F#-----6----6----6---6---6--6----6---6---6---6-----|
C#-------------------------------------------------|
G#-------------------------------------------------|
C#-------------------------------------------------|

"I need to know"
D#-----------------------0-|
A#-----------------------3-|
F#-----------------------2-|
C#-0-0-0-0-0-0-0-0-0-0-0-0-|
G#-0-0-0-0-0-0-0-0-0-0-0-0-|
C#-0-0-0-0-0-0-0-0-0-0-0-0-|
   . . . . . . . . . . .

"Why are you walking away?"--"I need to know"
D#-5----5----5----7---4---7--5---5---5----7-------|
A#---5----5----5---5---5---5---5---5---5----5-----|
F#-----6----6----6---6---6--6----6---6---6---6----|
C#------------------------------------------------|
G#------------------------------------------------|
C#------------------------------------------------|

"Is this what you call a family?"
[Keep Palm Muting]
D#---|
A#---|
F#---|
C#--7|
G#--4|
C#--4|



"Is this what you call a family?!" [Screamed]
D#---------------------------------------------------------|
A#-----------------------(3)-------------------------------|
F#-----------------------(3)-------------------------------|
C#---------------------------------------------------------|
G#-0-0-0-0-0---0-0-0-0-0-----0-0-0-0-0---0-0-0-0-0---------|
C#-0-0-0-0-0---0-0-0-0-0-----0-0-0-0-1---0-0-0-0-0---------|

"Why are you walking away?"
D#--------|
A#--------|
F#-4----7-|
C#-7----9-|
G#-4----7-|
C#-4----7-|

"Was it something I did?"--"Tell me please I need to know!!"
D#-5----5----5----7---4---7--5---5---5----7-------|
A#---5----5----5---5---5---5---5---5---5----5-----|
F#-----6----6----6---6---6--6----6---6---6---6----|
C#------------------------------------------------|
G#------------------------------------------------|
C#------------------------------------------------|
Tap to rate this tab
# A B C D E F G H I J K L M N O P Q R S T U V W X Y Z