Guitaretab - guitar tabs
Song name
# A B C D E F G H I J K L M N O P Q R S T U V W X Y Z

Sleeping With Sirens - Iris tab

Hello! This song is originally by the Goo Goo Dolls but Sleeping With Sirens covered it.
This tab is for the way Jesse plays it live
(ex.http://www.youtube.com/watch?v=M5mSP35SBrI). He plays it in Drop C(CGCFAD) live, but 
the recording is in Drop D(DADGBE) so whichever you prefer. The chord names are in Drop 
C, Play them a whole step up and that is
standard tuning. Hope this helps(:
*****************************************************************************

Intro:
D|-x------0-----/0-----/0-----/0-----/0-|
A|-3------0-----/0-----/0-----/0-----/0-|
F|-2------0-----/4-----/7-----/6-----/4-|
C|-0------x-----/x-----/x-----/x-----/x-|
G|-0------2-----/5-----/9-----/7-----/5-|
C|-0------2-----/5-----/9-----/7-----/5-|
  Cmaj   Dm    Fmaj    Am    Gmaj   Fmaj



Verse:
D|-x------0-----/0-----/0-----/0-----/0-|
A|-3------0-----/0-----/0-----/0-----/0-|
F|-2------0-----/4-----/7-----/6-----/4-|
C|-0------x-----/x-----/x-----/x-----/x-|    (4x)
G|-0------2-----/5-----/9-----/7-----/5-|
C|-0------2-----/5-----/9-----/7-----/5-|
  Cmaj   Dm    Fmaj    Am    Gmaj   Fmaj


[ Tab from: http://www.guitaretab.com/s/sleeping-with-sirens/359688.html ]
Chorus:
D|-0-----\0-----\0-----\0-----\0-----\0-|
A|-0-----\0-----\0-----\0-----\0-----\0-|
F|-7-----\6-----\4-----\7-----\11----\4-|
C|-x-----\x-----\x-----\x-----\x-----\x-|    (2x)
G|-9-----\7-----\5-----\9-----\12----\5-|
C|-9-----\7-----\5-----\9-----\12----\5-|
  Am    Gmaj   Fmaj    Am    Cmaj   Fmaj



Post Chorus:
D|-x------0-----/0-----/0-----/0-----/0-|
A|-3------0-----/0-----/0-----/0-----/0-|
F|-2------0-----/4-----/7-----/6-----/4-|
C|-0------x-----/x-----/x-----/x-----/x-|
G|-0------2-----/5-----/9-----/7-----/5-|    (1x)
C|-0------2-----/5-----/9-----/7-----/5-|
  Cmaj   Dm    Fmaj    Am    Gmaj   Fmaj




Verse 2:
D|-x------0-----/0-----/0-----/0-----/0-|
A|-3------0-----/0-----/0-----/0-----/0-|
F|-2------0-----/4-----/7-----/6-----/4-|
C|-0------x-----/x-----/x-----/x-----/x-|
G|-0------2-----/5-----/9-----/7-----/5-|    (2x)
C|-0------2-----/5-----/9-----/7-----/5-|
  Cmaj   Dm    Fmaj    Am    Gmaj   Fmaj




Chorus:
D|-0-----\0-----\0-----\0-----\0-----\0-|
A|-0-----\0-----\0-----\0-----\0-----\0-|
F|-7-----\6-----\4-----\7-----\11----\4-|
C|-x-----\x-----\x-----\x-----\x-----\x-|    (5x)
G|-9-----\7-----\5-----\9-----\12----\5-|
C|-9-----\7-----\5-----\9-----\12----\5-|
  Am    Gmaj   Fmaj    Am    Cmaj   Fmaj



************************************

| /   slide up
| \   slide down
| x   Mute note

************************************
Related for Iris tab
Iris chords by Sleeping With Sirens