Song name
# A B C D E F G H I J K L M N O P Q R S T U V W X Y Z

Sleeping With Sirens - Congratulations tab

(Starts with drums)

Intro

D |--------|-------|-------------|-------|
A |--------|-------|-------------|-------|
F |--------|-------|-------------|-------| All x2 
C |-5~3~3~-|-0-0-0-|-0-0--0-3--3-|-0-0-0-| Then play 1st 
G |-5~3~3~-|-0-0-0-|-0-0--0-3--3-|-0-0-0-| bar once.
C |-5~3~3~-|-0-0-0-|-0-0--0-3--3-|-0-0-0-|


Verse 1

D |----------|------------|------------|--------------|
A |-------0~-|---------0~-|---------0~-|--------------|
F |----12~---|------12~---|------12~---|------12------|
C |----------|---10~------|---10~------|---10~---x-3~-|
G |----------|------------|------------|---------x-3~-|
C |----------|------------|------------|---------x-3~-|

D |----3~---|-----3------|---------|------------|
A |------3~-|------------|----5~---|-----5------|
F |---------|---5~-------|---------|---5~-------| All x3
C |---------|-------x-5~-|------9~-|-------x-0~-| (On 3rd, donít 
G |---------|-------x-5~-|---------|-------x-0~-|  play the last bar)
C |---------|-------x-5~-|---------|-------x-0~-|


Pre-Chorus

D |--------|    D |--------|
A |--------|    A |--------|
F |--------| x3 F |--------| Play the open
C |----0---|    C |-5~3~3~-| 3 times again
G |----0---|    G |-5~3~3~-|
C |----0---|    C |-5~3~3~-|

D |-------|          D |--------|
A |-------|          A |--------|
F |-------| Rest for F |--------|
C |-5~3~--| 3 bars   C |-5~3~3~-|
G |-5~3~--|          G |-5~3~3~-|
C |-5~3~--|          C |-5~3~3~-|


Chorus

D |--------|--------------|---------|--------|
A |--------|--------------|---------|--------|
F |--------|--------------|---------|--------| x3 Then play the 
C |--0-0-0-|-0-0--0-3--3~-|---0-0-0-|-5~3~3~-|    1st three bars
G |--0-0-0-|-0-0--0-3--3~-|---0-0-0-|-5~3~3~-|
C |--0-0-0-|-0-0--0-3--3~-|---0-0-0-|-5~3~3~-|

                                    |--------|
                                    |--------|
                                    |--------| Play this as
                                    |-5~3~5~-| 4th bar the 3rd 
                                    |-5~3~5~-| time.
                                    |-5~3~5~-|
Post-Chorus

D |---------|--------------|--------|
A |---------|--------------|--------|
F |---------|--------------|--------|
C |---5-5-5-|-5--5-5-3-6~\-|-5~3~3~-|
G |---5-5-5-|-5--5-5-3-6~\-|-5~3~3~-|
C |---5-5-5-|-5--5-5-3-6~\-|-5~3~3~-|


Pre-Verse

D |----------|--------------|---------|--------|
A |----------|--------------|---------|--------|
F |----------|--------------|---------|--------|
C |----0-0-0-|-0-0--0-3--3~-|---0-0-0-|-5~3~0~-|
G |----0-0-0-|-0-0--0-3--3~-|---0-0-0-|-5~3~0~-|
C |----0-0-0-|-0-0--0-3--3~-|---0-0-0-|-5~3~0~-|


Verse

D |----------------------------|-----------------------------|
A |----------------------------|-----------------------------|
F |---------------14--------15-|----14----------------14-----|
C |----12--15-12-----12--12----|-12-----12-12--15-12-----12~-|
G |----------------------------|-----------------------------|
C |----------------------------|-----------------------------|
        *      *      *   *       *      *  *      *
D |---------------------------|-----------------------------|
A |---------------------------|-----------------------------|
F |--------------12-----------|----12----------------12-----| All x3
C |---12--15-12-----12--12-15-|-12-----12-12--15-12-----12~-| Then just the 
G |---------------------------|-----------------------------| first 3 bars
C |---------------------------|-----------------------------|
       *      *      *   *       *      *  *      *
D |-------------------------|
A |-------------------------|
F |----12-------------------|
C |-12-----12-12--15-12--3~-|
G |----------------------3~-|
C |----------------------3~-|
     *      *  *      *

Pre-Chorus

D |--------|    D |--------|
A |--------|    A |--------|
F |--------| x3 F |--------| All x2
C |----0---|    C |-5~3~3~-| 
G |----0---|    G |-5~3~3~-|
C |----0---|    C |-5~3~3~-|


Chorus

D |--------|--------------|---------|--------|
A |--------|--------------|---------|--------|
F |--------|--------------|---------|--------| x3 Then play the 
C |--0-0-0-|-0-0--0-3--3~-|---0-0-0-|-5~3~3~-|    1st three bars
G |--0-0-0-|-0-0--0-3--3~-|---0-0-0-|-5~3~3~-|
C |--0-0-0-|-0-0--0-3--3~-|---0-0-0-|-5~3~3~-|

                                    |--------|
                                    |--------|
                                    |--------| Play this as
                                    |-5~3~5~-| 4th bar the 3rd 
                                    |-5~3~5~-| time.
                                    |-5~3~5~-|

Post-Chorus

D |---------|--------------|--------|
A |---------|--------------|--------|
F |---------|--------------|--------|
C |---5-5-5-|-5--5-5-3-6~\-|-5~3~3~-|
G |---5-5-5-|-5--5-5-3-6~\-|-5~3~3~-|
C |---5-5-5-|-5--5-5-3-6~\-|-5~3~3~-|


Pre-Verse Riff

D |----------|--------------|---------|--------|
A |----------|--------------|---------|--------|
F |----------|--------------|---------|--------|
C |----0-0-0-|-0-0--0-3--3~-|---0-0-0-|-5~3~0~-|
G |----0-0-0-|-0-0--0-3--3~-|---0-0-0-|-5~3~0~-|
C |----0-0-0-|-0-0--0-3--3~-|---0-0-0-|-5~3~0~-|


Interlude

D |--------|---------|--------|--------|        
A |--------|------0~-|--------|--------|        
F |--------|-----12~-|--------|--------| All x3 
C |--------|-----10~-|--------|-5~3~0~-|        
G |--------|---------|--------|-5~3~0~-|        
C |--------|---------|--------|-5~3~0~-|        

                              |--------|
                              |--------|
                              |--------| Play a 4th 
                              |-5~3~3~-| time with this
                              |-5~3~3~-| as the 4th bar
                              |-5~3~3~-|

Solo

Guitar 1
D |--10---------|----------------------------|---------|-------------------------|
A |--13b--------|-12br--10-------------------|---------|-------------------------|
F |-------12-12-|----------12--12p10-----10~-|---------|-------------------------|
C |-------------|---------------------12-----|--12--12-|-10-10-------------------|
G |-------------|----------------------------|---------|--------8-8--12-10--8-8~-|
C |-------------|----------------------------|---------|-------------------------|

D |-----------------|-----------------------|-----|-10--10--------|----10~~-|
A |-----------------|-----------------------|-----|-13b-13b--15b~-|----13b~-|
F |-----------------|-----------------------|-----|---------------|---------|
C |-----------------|-5h6--0-7--0-10--0-12~-|-----|---------------|---------|
G |--0--5p0-5p0-5p0-|-----------------------|-----|---------------|---------|
C |-----------------|-----------------------|-----|---------------|---------|

D |------------------------|--------|--------------------|-----------|--------------|
A |--13p10x--13p12p10x-----|--------|-12--12-------------|--------10-|-----10-x-----|
F |--------------------12~-|----10--|-12--12--12p10--12~-|-(12b)--10-|-----10-x-----|
C |------------------------|--------|--------------------|-----------|-12-------12~-|
G |------------------------|--------|--------------------|-----------|--------------|
C |------------------------|--------|--------------------|-----------|--------------|

D |---------------|---------------------|
A |---------------|---------------------|
F |---------------|---------------------|
C |----12-10------|---------------------|
G |----------12-8-|-10-11-10-8-5-8-5-5~-|
C |---------------|---------------------|

Guitar 2
D |--------|--------------|---------|--------|
A |--------|--------------|---------|--------|
F |--------|--------------|---------|--------| x3 Then play the 
C |--0-0-0-|-0-0--0-3--3~-|---0-0-0-|-5~3~3~-|    1st three bars
G |--0-0-0-|-0-0--0-3--3~-|---0-0-0-|-5~3~3~-|
C |--0-0-0-|-0-0--0-3--3~-|---0-0-0-|-5~3~3~-|

                                    |--------|
                                    |--------|
                                    |--------| Play this as 
                                    |-5~3~---| the 4th bar the
                                    |-5~3~---| 3rd time
                                    |-5~3~---|

Bridge

(When guitar comes in)
D |--------|--------|--------|---------|--------|---------|---------------|--------|
A |--------|--------|--------|---------|--------|---------|---------------|--------|
F |--------|--------|--------|---------|--------|---------|---------------|--------|
C |-----0~-|---0----|----11~-|---11----|--------|---------|---------------|---0-3~-|
G |-----0~-|---0----|----12~-|---12----|----12~-|---12----|-Pickslide////-|---0-3~-|
C |-----0~-|---0----|----11~-|---11----|----10~-|---10----|-Pickslide////-|---0-3~-|


Chorus

D |--------|--------------|---------|--------|
A |--------|--------------|---------|--------|
F |--------|--------------|---------|--------| x3 Then play the 
C |--0-0-0-|-0-0--0-3--3~-|---0-0-0-|-5~3~3~-|    1st three bars
G |--0-0-0-|-0-0--0-3--3~-|---0-0-0-|-5~3~3~-|
C |--0-0-0-|-0-0--0-3--3~-|---0-0-0-|-5~3~3~-|

                                    |--------|
                                    |--------|
                                    |--------| Play this as
                                    |-5~3~5~-| 4th bar the 3rd 
                                    |-5~3~5~-| time.
                                    |-5~3~5~-|

D |---------|-------------|
A |---------|-------------|
F |---------|-------------|
C |---5-5-5-|-5--5-5-3-6~-|
G |---5-5-5-|-5--5-5-3-6~-|
C |---5-5-5-|-5--5-5-3-6~-|

(Guitar Break)

D |--------|
A |--------|
F |--------|
C |-5~3~0~-| <- This last note
G |-5~3~0~-|    is held for a LONG
C |-5~3~0~-|    time.


Outro

D |-----|-------|
A |-----|-------|
F |-----|-------|
C |-0-0-|-0-----|
G |-0-0-|-0-----|
C |-0-0-|-0-----|
Tap to rate this tab
# A B C D E F G H I J K L M N O P Q R S T U V W X Y Z