Song name
# A B C D E F G H I J K L M N O P Q R S T U V W X Y Z

Sleeping With Sirens - James Dean And Audrey Hepburn Acoustic tab

Looking through these tabs, I noticed that none sound too great or accurate. This song 
is beautiful on acoustic guitar, so I decided to tab it out. This is taken from a 
tutorial by tjerkguitar on YouTube.

Tabbed by: Haley (haleym0007)
E-mail: jagkbaralex@gmail.com

Tuning: d A F# D# A D



//Intro//

|0-----------------------0----------------------0---------------------------|
|0-----------------------0----------------------0---------------------------|
|8-----------------------3----------------------8---------------------------|
|8-----------------------4----------------------8---------------------------|
|9-----------------------5----------------------9---------------------------|
|9-----------------------5----------------------9---------------------------|
 Stay for tonight...     Dreams are made...     Away for a...

|0---------------------0----------------------0-----------------------------|
|0---------------------0----------------------0-----------------------------|
|3---------------------5----------------------8-----------------------------|
|4---------------------6----------------------8-----------------------------|
|5---------------------7----------------------9-----------------------------|
|5---------------------7----------------------9-----------------------------|
 I can't imagine...    I can't imagine...     Here...



//Verse//

|0---------------------0------------0-------------0------------0------------|
|0---------------------0------------0-------------0------------0------------|
|8---------------------5------------3-------------5------------1------------|
|8---------------------6------------4-------------6------------1------------|
|9---------------------7------------5-------------7------------2------------|
|9---------------------7------------5-------------7------------2------------|
 ...How the hell...    Sing you     A song...     Beauty (1,2)(3,4)

|0-----------0------------0---------0-----------------0-------------0-------|
|0-----------0------------0---------0-----------------0-------------0-------|
|8-----------5------------3---------5-----------------1-------------8-------|
|8-----------6------------4---------6-----------------1-------------8-------|
|9-----------7------------5---------7-----------------2-------------9-------|
|9-----------7------------5---------7-----------------2-------------9-------|
 To me...    Beast in     Me...     Since then...     History...



//Chorus//

|0------------------------0----------------0---------------0----------------|
|0------------------------0----------------0---------------0----------------|
|1------------------------3----------------8---------------5----------------|
|1------------------------4----------------8---------------6----------------|
|2------------------------5----------------9---------------7----------------|
|2------------------------5----------------9---------------7----------------|
...They say...         forever, your...    Need, please    Stay as long...

|0----------0--------------------0-----------------0----------------0-------|
|0----------0--------------------0-----------------0----------------0-------|
|1----------3--------------------8-----------------5----------------8-------|
|1----------4--------------------8-----------------6----------------8-------|
|2----------5--------------------9-----------------7----------------9-------|
|2----------5--------------------9-----------------7----------------9-------|
 Need...    Broken, but I...     Leave, please     Stay forever     With me

|0-------------0----------------0-------------------------------------------|
|0-------------0----------------0-------------------------------------------|
|8-------------3----------------5-------------------------------------------|
|8-------------4----------------6-------------------------------------------|
|9-------------5----------------7-------------------------------------------|
|9-------------5----------------7-------------------------------------------|
 If you...     ...If you...     Show you...



//Verse//
//Chorus//



//Bridge//

|----0---------0--------------0-----------------------0-----------0--------|
|----0---------0--------------0-----------------------0-----------0--------|
|----1---------3--------------0-----------------------1-----------3--------|
|----1---------4--------------x-----------------------1-----------4--------|
|----2---------5--------------0-----------------------2-----------5--------|
|----2---------5--------------0-----------------------2-----------5--------|
 The way...   Are is the      Reason I stay...     As long...     With me

|--0---------------------0---0---0-----------------------------------------|
|--0---------------------0---0---0-----------------------------------------|
|--0---------------------1---3---0-----------------------------------------|
|--x---------------------1---4---x-----------------------------------------|
|--0---------------------2---5---0-----------------------------------------|
|--0---------------------2---5---0-----------------------------------------|
 I know I'll be okay    ^ 6 times ^



//Chorus//
//Chorus// (WITH ME chord is changed to 0 0 3 4 5 5)
Tap to rate this tab
# A B C D E F G H I J K L M N O P Q R S T U V W X Y Z