Song name
# A B C D E F G H I J K L M N O P Q R S T U V W X Y Z

Sleeping With Sirens - Do It Now Remember It Later tab

Sleeping With Sirens - Do It Now Remember, It Later 

Rhythm Guitar Tab

Tuning - Drop C

Awesome song, and it's very easy to play. If there are mistakes, which I'm sure there are,
please comment and leave corrections, or suggestions on how to improve the tab.

Intro-
|----------------------------------|----------------------------|
|----------------------------------|----------------------------|
|------------15-15-15-14-14-15-15--|--10-10-10-14-14-15-15--15~-| 7x
|-0~---------x--x--x--x--x--x--x---|--x--x--x--x--x--x--x---x-~-|
|-0~---------13-13-13-12-12-13-13--|--8--8--8--12-12-13-13--13~-|
|-0~-------------------------------|----------------------------|

Pre Chorus-
|-----------------|-----------------------------|
|-----------------|-----------------------------|
|-----------------|-----------------------------|
|--5-----3-----1~-|---5---3---8-----1-1--1-1--1-|
|--5-----3-----1~-|---5---3---8-----1-1--1-1--1-|
|--5-----3-----1~-|---5---3---8-----1-1--1-1--1-|

Chorus-
|-----------|--------|--------|    
|-----------|--------|--------|    
|--15-------|-19-----|-14-----| 5x 
|--x----16x-|-x---8x-|-x---8x-|    
|--13-------|-17-----|-12-----|    
|-----------|--------|--------|     

Verse-
|------------|---------------------------------------|
|------------|---------------------------------------|
|--15~-------|---------------------------------------|
|--x-~----0--|--5------5------8------8------3------0-|2x
|--13~----0--|--5--7x--5--8x--8--7x--8--8x--3--6x--0-|
|---------0--|--5------5------8------8------3------0-|

|----------------------------------|
|----------------------------------|
|----------------------------------|
|---5-------5-------8-------3------|
|---5--7x---5--8x---8--8x---3--8x--|
|---5-------5-------8-------3------|

Repeat Pre-Chorus
Repeat Chorus
Repeat Pre Chorus

Bridge
|-------------------------|---------------------------------------------|   |-----------|
|-------------------------|---------------------------------------------|   |-----------|
|-------------------------|---------------------------------------------|   |-----------|
|-1~----1~-----8~----3~---|-1----1-1--1-1--1----0------1--0------8---3~-|2x |--5~----1~-|
|-1~----1~-----8~----3~---|-1----1-1--1-1--1----0--8x--1--0--7x--8---3~-|   |--5~----1~-|
|-1~----1~-----8~----3~---|-1----1-1--1-1--1----0------1--0------8---3~-|   |--5~----1~-|

Repeat Chorus
|-------|
|-------| Outro
|--15~--|  ↵
|--x-~--|
|--13~--|
|-------|
Tap to rate this tab
 
# A B C D E F G H I J K L M N O P Q R S T U V W X Y Z