Song name
# A B C D E F G H I J K L M N O P Q R S T U V W X Y Z

Sleeze Beez - Stranger Than Paradise tab

-------------------------------------------------------------------------
		  Sleeze Beez: Stranger Than Paradise
-------------------------------------------------------------------------

Tabbed by: Edm Rockjunkie                             Please Rate Tab
            (Michael T.)                           If You Like Rendition

Tuning: Standard

Arranged for one guitar to sound best with recording, as there are multi-
overdub recordings on both clean/distorted electric guitar parts... some
noted in intro within brackets.      

Solo2 is insane with some various bar dips, but figured some scales/runs 
out to work alright.


Awesome rockin' tune... Enjoy!!



Legends:
         /  slide up        \  slide down
         h  hammer-on       p  pull-off
         ~  vibrato         +  harmonic
         x  mute note       b  bend
         *  pick at bend    r  release bend

 


   Intro: (cl.)                     (dis.)
E|-------------------------------------------------------------------------|
B|-------------------------------------------------------------------------|
G|-------------------------------------------------------------------------|
D|--------------------9----7-6-7p6------<--7p6---7p6---7p6---7p6---7p6-----|
A|----------x/7~~~-----------------7~~~-<------7-----7-----7-----7-----7~~~|
E|-0-----------------------------------------------------------------------|

                          (with tremelo bar)......................  (cl.)
E|----------------------------------------------19~~~-17-16-17~~~~----0----|
B|---------(12-- 10-9-10-9)------------17~~~--------------------------6----|
G|--(9)---------------------------------------------------------------5----|
D|-----------9~~~-7-6-7-6-\/-------------------------(7p6---7p6-------7----|
A|-x/7~~~-------------------x/7~~~~~----------------------7-----7)----0----|
E|-------------------------------------------------------------------------|

   Rhythm Fig 1: (cl.)
E|------------------------------------0------------------------------------|
B|------0--------------0-----------------0-----------0---------------0-----|
G|---2-----2-2------2-----2-2------2-------2------2------2-2------2-----2-2|
D|-2--2-----2-----3--3-----3-----4--4-----4-----3--3------3-----2--2-----2-|
A|-0--------------0--------------0--------------0---------------0----------|
E|-------------------------------------------------------------------------|

                                          (dis.)                pm.........
E|--------------------0-------------------------pm.........----------------|
B|------0----------------0-----------0-------------------------------------|
G|---2-----2-2-----2-------2------2-----2-2--2---------------2-------------|
D|-3--3-----3----4--4-----4-----3--3-----3---2---------------3-------------|
A|-0-------------0--------------0------------0---0-0-0-0-0-0-0---0-0-0-0-0-|
E|-------------------------------------------------------------------------|

       pm.........     pm..           pm.........     pm.........     pm...
E|-------------------------------------------------------------------------|
B|-------------------------------------------------------------------------|
G|-2---------------2------------4-2---------------2---------------2--------|
D|-4---------------3--------3/5---2---------------3---------------4--------|
A|-0---0-0-0-0-0-0-0---0-0--------0---0-0-0-0-0-0-0---0-0-0-0-0-0-0---0-0-0|
E|-------------------------------------------------------------------------|

   ......    pm.........   End1   +  (w/bar)         Rhythm Fig 2:
E|-----------------------3-----|-------------------|-----------------------|
B|-----------------------3-----|-------------------|---pm...--pm---pm...---|
G|-------2---------------0-----|--5-\/(5)\/\/\/(5)-|-9-------9---8-------8-|
D|-------3---------------0-----|-------------------|-9-------9---9-------9-|
A|-0-0-0-0---0-0-0-0-0-0-2-----|-------------------|-7-------7---7-------7-|
E|-----------------------3-----|-------------------|-0-0-0-0-0-0-0-0-0-0-0-|

                              End2    pm...  pm  pm....  pm  pm......... 
E|--------------------------------|----------------------------------------|
B|pm---pm.........----------------|----------------------------------------|
G|--------------------------------|-9-------9---8-------8------------------|
D|---7-------------7p6---7p6------|-9-------9---9-------9---7--------------|
A|---7-----------------7-----7~~~-|-7-------7---7-------7---7--------------|
E|-0-5-5-5-5-5-5-5----------------|-0-0-0-0-0-0-0-0-0-0-0-0-5-5-5-5-5-5-5--|

                 (cl.)               +  (w/bar)      +    
E|----------------0----------------------------------12\/\/\/--------------|
B|----------------6------------------5-\/-\/\/\/(5)~~----------------------|
G|----------------5------ Repeat ------------------------------- Repeat ---|
D|-7p6---7p6------7----- Rhy Fig1 ----------------------------- Rhy Fig2 --|
A|-----7-----7~~~-0---------------------------------------------- 2 x -----|
E|-------------------------------------------------------------------------|

     pm.........           Solo 1: (cl.) (riff A on solos)
E|--------------------------------------------------------------------12-14|
B|-----------------------------------------------------------------12------|
G|-9-------------------------------------------------9-12-11~-9-12---------|
D|-9-------------9----7-9-----------------7-9-10~~-------------------------|
A|-7-------------9----7-9---/7~~---7-9-10----------------------------------|
E|-0-0-0-0-0-0-0-7----5-7--------0-----------------------------------------|

                                       h p p   h
E|-15-14~~12----12-10-12-10----------------------------------12-10---------|
B|--------------------------13-12-10-12131210-1213 12~~---/12------13-12-10|
G|-------------------------------------------------------------------------|
D|-------------------------------------------------------------------------|
A|-------------------------------------------------------------------------|
E|-------------------------------------------------------------------------|

    h p p    h 
E|------------------0----0---0---0-----------------------------------------|
B|-12131210-1012-12---10-----------------10-12-13-13~--12-13-15-13-15-17-15|
G|-------------------------12--11--9~~-------------------------------------|
D|-------------------------------------------------------------------------|
A|-------------------------------------------------------------------------|
E|-------------------------------------------------------------------------|

                        Solo 2: (dis.)    
E|----13----13-15-13-15(17~)-----------------------------------------------|
B|-17----17----------------------------10-1212b-12b-r12p10-12br-10\--------|
G|----------------------12b--r12br12b~------------------------------9-10-12|
D|-------------------------------------------------------------------------|
A|-------------------------------------------------------------------------|
E|-------------------------------------------------------------------------|


E|-------------------------------------------------------------------------|
B|-10-------------------------------------------------------------131213/15|
G|----12-10-9-7-5-7b-\/\/\/-5h7p5\4\/\/\/\/------12-12h14-----12-----------|
D|-------------------------------------------------------12h14-------------|
A|-------------------------------------------------------------------------|
E|-------------------------------------------------------------------------|

                                                        h h          h h
E|-----------------1213/15-1315/17-----15---15/17~---0-121315-0------------|
B|-1315/17-1517/18-----------------1517---17-------------------12b-------10|
G|------------------------------------------------------------------91012--|
D|-------------------------------------------------------------------------|
A|-------------------------------------------------------------------------|
E|-------------------------------------------------------------------------|

                                                        +        +
E|-0---0---0---8---------5----0-7-0-8--10-8-10/12-8-10~--------------------|
B|---8---6---0---0---------8b---------------------------5\/-\/\/-----------|
G|-----------------5-7-------------------------------------------5\/\/-\/\/|
D|-------------------------------------------------------------------------|
A|-------------------------------------------------------------------------|
E|-------------------------------------------------------------------------|

                             pm....  pm. pm....  pm.  pm.........
E|-------------------------------------------------------------------------|
B|-------------------------------------------------------------------------|
G|-- Repeat ----- Pause ----9-------9---8-------8--------------------------|
D|- Rhy Fig2 ---------------9-------9---9-------9---7-------------7----7---|
A|--- 4 x ------------------7-------7---7-------7---7-------------7----7---|
E|--------------------------0-0-0-0-0-0-0-0-0-0-0-0-5-5-5-5-5-5-5-5----5---|

           outro: 
E|-------------------------------------------------------------------------|
B|-------------------------------------------------------------------------|
G|-------------------------------------------------------------------- 3x -|
D|-9-7--------2---4-2---2---2---4-2---2---2---4-2---2---2---4-2---2-- fade |
A|-9-7------2---2-----2---3---3-----3---4---4-----4---3---3-----3----------|
E|-7-5------0-------------0-------------0-------------0--------------------|


E|-------------------------------------------------------------------------|
B|-------------------------------------------------------------------------|
G|-------------------------------------------------------------------------|
D|-------------------------------------------------------------------------|
A|-------------------------------------------------------------------------|
E|-------------------------------------------------------------------------|

   riff A         pm........    pm........     pm.                  pm..... 
E|-------------------------------------------------------------------------|
B|---pm........------------------------------------------------------------|
G|------------------------------------------------------- repeat -2--------|
D|-2-------------2-------------2-------------2---------4----------2--------|
A|-2-------------3-------------4-------------3-----3/5------------0-0-0-0-0|
E|-0-0-0-0-0-0-0-0-0-0-0-0-0-0-0-0-0-0-0-0-0-0-0-0-------------------------|

  pm.    pm........    pm........   pm.          pm........     pm.........
E|-------------------------------------------------------------------------|
B|-------------------------------------------------------------------------|
G|-----2-------------2-------------2---------4--2-------------2------------|
D|-----3-------------4-------------3-----3/5----2-------------3------------|
A|-0-0-0-0-0-0-0-0-0-0-0-0-0-0-0-0-0-0-0--------0-0-0-0-0-0-0-0-0-0-0-0-0-0|
E|-------------------------------------------------------------------------|

    pm........    pm.........
E|------------------------------3-----------|
B|------------------------------3-----------|
G|-2-------------2--------------0-----------|
D|-4-------------3--------------0-----------|
A|-0-0-0-0-0-0-0-0-0-0-0-0-0-0--2-----------|
E|------------------------------3-----------|




============================================================================


---------------------------------PLEASE NOTE--------------------------------
This file is the author's own work and represents their interpretation of the
song. You may only use this file for private study, scholarship, or research.
----------------------------------------------------------------------------
Tap to rate this tab
 
# A B C D E F G H I J K L M N O P Q R S T U V W X Y Z