Song name
# A B C D E F G H I J K L M N O P Q R S T U V W X Y Z

Sleigh Bells - Infinity Guitars tab

-------------------------------------------------------------------------------
			     INFINITY GUITARS - Sleigh Bells
-------------------------------------------------------------------------------
Tabbed by:
Email:

Tuning: e B G D A E

Sleigh Bells' official Myspace:
http://www.myspace.com/sleighbellsmusic


riff 1:
e|----------------------------|
B|----------------------------|
G|----------------------------|
D|----------------7-6---------|
A|-5-/8-8-8-5-8---5-4---------|
E|-3-/6-6-6-3-6---------------|

riff 2:
e|--------------------|
B|--------------------|
G|--------------------|
D|--------------------|
A|-8--88-8--88-88-----|
E|-6--66-6--66-66-----|

riff 3:
e|--------------------|------------------------------------|
B|--------------------|------------------------------------|
G|--------------------|------------------------------------|
D|--------------------|----------------7-6---8-7--10-9--10-|
A|-8--88-8--88-88-----|-5-/8-8-8-5-8---5-4---6-5---8-7---8-|
E|-6--66-6--66-66-----|-3-/6-6-6-3-6-----------------------|


Order:
riff 1 x1
drums only
riff 1 x1
vocals and drums only
riff 1 x1
vocals and drums only
riff 1 x1
vocals, drums, and bass only
riff 2 x3
riff 1 x1
riff 2 x3
riff 1 x1
riff 2 x3
riff 1 x1
vocals, drums, and bass only
riff 2 x3
riff 1 x1
(click distortion on)
riff 3 x4
riff 2 x1
riff 3 x1
riff 2 x1
vocals and drums only




************************************

| /   slide up
| \   slide down
| h   hammer-on
| p   pull-off
| ~   vibrato
| +   harmonic
| x   Mute note
| b   Bend
| pb  Pre-bend
| br  Bend release
| pbr Pre-bend release
| brb Bend release bend

************************************
Tap to rate this tab
 
# A B C D E F G H I J K L M N O P Q R S T U V W X Y Z