Sleigh Bells - Tell Em tab

	
Sleigh Bells - Tell 'Em
		
Main riff
e|-------------------------------------------|
B|-------6-5---------------------------------|
G|-2-3-5-----2-3-5-3-2-----------------------|
D|-------------------------------------------|
A|-------------------------------------------|
E|-------------------------------------------|

Chord stroke between verses
e|-------------------------------------------|
B|-------------------------------------------|
G|-------------------------------------------|
D|-3-----------------------------------------|
A|-3-(bend and wiggle fingers, let ring out)-|
E|-1-----------------------------------------|

End part
e|-------------------------------------------|
B|-------------------------------------------|
G|-------------------------------------------|
D|----------------8-7------------------------|
A|-88-88-8-888-88-----88-88-33-88-88-7-------|
E|-------------------------------------------|
Tap to rate this tab
 
# A B C D E F G H I J K L M N O P Q R S T U V W X Y Z