Song name
# A B C D E F G H I J K L M N O P Q R S T U V W X Y Z

Sleigh Bells - Crown On The Ground tab

Not 100% positive but this sounds really similar if it's incorrect

Intro

e--6b7-77-77-777-6b7-77-77-777-|
B------------------------------|
G------------------------------|   Repeat as needed
D------------------------------|
A------------------------------|
E------------------------------|

Chords are the same throughout the song its just the rhythm or effects that change.

Chord progression:

    B       G#       F#
e---7-------4--------2--|
B---7-------4--------2--|
G---8-------5--------3--|   Repeat as needed.
D---9-------6--------4--|
A---9-------6--------4--|
E---7-------4--------2--|


Great song! Hope this helps!!!
Tap to rate this tab
 
# A B C D E F G H I J K L M N O P Q R S T U V W X Y Z