Song name
# A B C D E F G H I J K L M N O P Q R S T U V W X Y Z

Sleigh Bells - Sugarcane tab

(Intro) Guitar 2- I'm not too sure about this part...Feel free to give corrections...
e|-------------------------------------|
B|-8-11-10-----8-11-10-----------------|
G|---------9-----------8---------------|x2
D|-------------------------------------|
A|-------------------------------------|
E|-------------------------------------|

e|----------------|
B|-8-11-10--------|
G|----------------|
D|----------------|
A|----------------|
E|----------------|

(Intro)Guitar 1
e|---------------------------------------------------------|
B|---------------------------------------------------------|
G|-5--5--5-5-5---------------9--9--9-9-9-------------------|
D|-5--5--5-5-5--7--7--7-7-7--9--9--9-9-9--6--6--6-6-6------|X2
A|-3--3--3-3-3--7--7--7-7-7--7--7--7-7-7--6--6--6-6-6------|
E|--------------5--5--5-5-5---------------4--4--4-4-4------|

(Verse 1)
e|--------------------------------------------------------|
B|--------------------------------------------------------|
G|-5--5--5-5-5---------------9--9--9-9-9------------------|
D|-5--5--5-5-5--7--7--7-7-7--9--9--9-9-9--6--6--6-6-6-----|X3
A|-3--3--3-3-3--7--7--7-7-7--7--7--7-7-7--6--6--6-6-6-----|
E|--------------5--5--5-5-5---------------4--4--4-4-4-----|

e|------------------------------------------------------|
B|------------------------------------------------------|
G|-5--5--5-5-5-------------9--9--9-9-9------------------|
D|-5--5--5-5-5--7-x--------9--9--9-9-9--6--6--6-6-6-----|
A|-3--3--3-3-3--7-x--7/0---7--7--7-7-7--6--6--6-6-6-----|
E|--------------5-x---------------------4--4--4-4-4-----|

(Chorus)"On the deep, deep end you become so desperate to win..."
e|--------------------------------------------------------|
B|--------------------------------------------------------|
G|-5--5--5-5-5--7--7--7-7-7-------------------------------|
D|-5--5--5-5-5--7--7--7-7-7--7--7-7-7-7-6-6-6-6-----------|x2
A|-3--3--3-3-3--5--5--5-5-5--7--7-7-7-7-6-6-6-6-----------|
E|---------------------------5--5-5-5-5-4-4-4-4-----------|

e|----------------------------------------------------|
B|----------------------------------------------------|
G|-5--5--5-5-5--7-7-7-7-7-9-9-9-9-9-10-10-10-10-10----|
D|-5--5--5-5-5--7-7-7-7-7-9-9-9-9-9-10-10-10-10-10----|x2
A|-3--3--3-3-3--5-5-5-5-5-7-7-7-7-7-8--8--8--8--8-----|
E|----------------------------------------------------|

(After The Chorus) "Beware,Beware,Beware,Beware..."
e|---------------------------------------------------------|
B|---------------------------------------------------------|
G|-5--5--5-5-5---------------9--9--9-9-9-------------------|
D|-5--5--5-5-5--7--7--7-7-7--9--9--9-9-9--6--6--6-6-6------|X2
A|-3--3--3-3-3--7--7--7-7-7--7--7--7-7-7--6--6--6-6-6------|
E|--------------5--5--5-5-5---------------4--4--4-4-4------|

e|----------------------------------------|
B|----------------------------------------|
G|-5--5--5-5-5---------------9--9--9-9-9--|
D|-5--5--5-5-5--7--7--7-7-7--9--9--9-9-9--|
A|-3--3--3-3-3--7--7--7-7-7--7--7--7-7-7--|
E|--------------5--5--5-5-5---------------|

(Verse 2)A bit different than the first in terms of order...
e|---------------------------------------------------------|
B|---------------------------------------------------------|
G|-5--5--5-5-5---------------9--9--9-9-9-------------------|
D|-5--5--5-5-5--7--7--7-7-7--9--9--9-9-9--6--6--6-6-6------|
A|-3--3--3-3-3--7--7--7-7-7--7--7--7-7-7--6--6--6-6-6------|
E|--------------5--5--5-5-5---------------4--4--4-4-4------|

e|------------------------------------------------------|
B|------------------------------------------------------|
G|-5--5--5-5-5-------------9--9--9-9-9------------------|
D|-5--5--5-5-5--7-x--------9--9--9-9-9--6--6--6-6-6-----|
A|-3--3--3-3-3--7-x--7/0---7--7--7-7-7--6--6--6-6-6-----|
E|--------------5-x---------------------4--4--4-4-4-----|

e|---------------------------------------------------------|
B|---------------------------------------------------------|
G|-5--5--5-5-5---------------9--9--9-9-9-------------------|
D|-5--5--5-5-5--7--7--7-7-7--9--9--9-9-9--6--6--6-6-6------|
A|-3--3--3-3-3--7--7--7-7-7--7--7--7-7-7--6--6--6-6-6------|
E|--------------5--5--5-5-5---------------4--4--4-4-4------|


Play Chorus


(After 2nd Chorus)"Beware,Beware,Beware,Beware..."
e|---------------------------------------------------------|
B|---------------------------------------------------------|
G|-5--5--5-5-5---------------9--9--9-9-9-------------------|
D|-5--5--5-5-5--7--7--7-7-7--9--9--9-9-9--6--6--6-6-6------|x3
A|-3--3--3-3-3--7--7--7-7-7--7--7--7-7-7--6--6--6-6-6------|
E|--------------5--5--5-5-5---------------4--4--4-4-4------|

e|----------------------------------------|
B|----------------------------------------|
G|-5--5--5-5-5---------------9--9--9-9-9--|
D|-5--5--5-5-5--7--7--7-7-7--9--9--9-9-9--|
A|-3--3--3-3-3--7--7--7-7-7--7--7--7-7-7--|
E|--------------5--5--5-5-5---------------|

(Distorted Acoustic Solo)
e|-----------------------------------------------------|
B|-----------------------------------------------------|
G|-5--5--5-5-5-----------------------------------------|
D|-5--5--5-5-5-7--7--7-7-7--6--6--6-6-6--5-5-5-5-------|x2
A|-3--3--3-3-3-7--7--7-7-7--6--6--6-6-6--5-5-5-5-------|
E|-------------5--5--5-5-5--4--4--4-4-4--3-3-3-3-------|

e|----------------------------------------------------|
B|----------------------------------------------------|
G|-5--5--5-5-5--7-7-7-7-7-9-9-9-9-9-10-10-10-10-10----|
D|-5--5--5-5-5--7-7-7-7-7-9-9-9-9-9-10-10-10-10-10----|x2
A|-3--3--3-3-3--5-5-5-5-5-7-7-7-7-7-8--8--8--8--8-----|
E|----------------------------------------------------|

e|---------|
B|---------|
G|----5----|
D|----5----|
A|----3----|
E|---------|

Tap to rate this tab
# A B C D E F G H I J K L M N O P Q R S T U V W X Y Z