Song name
# A B C D E F G H I J K L M N O P Q R S T U V W X Y Z

Sleigh Bells - Treats tab

-------------------------------------------------------------------------------
                             Treats - Sleigh Bells
-------------------------------------------------------------------------------
Tabbed by: miles sanders
E-mail: thegreatmdog@yahoo.com

Tuning: Standard

I split it into two parts. On the intro, guitar I uses a tremolo effect

intro
guitar I
e|--------------------------------|
B|--------------------------------|
G|--------------------------------|
D|--------------------------------|
A|---------3---4----------0---1---|
E|---0-1--------------1-----------|
guitar II
e|--------------------------------|
B|--------------------------------|
G|---------9---10---------9---7---|
D|---6-7--------------7-----------|
A|--------------------------------|
E|--------------------------------|

Verse
Guitar I
e|-----------------------------------|
B|-----------------------------------|
G|----------5--6---------------------|
D|---3-3-3--5--6----3-3--7--8--------|
A|---3-3-3--3--4----3-3--7--8--------|
E|---1-1-1----------1-1--5--6----0---|

Guitar II plays this right before and after 
the vocals and then Guitar I starts to play it
e|-----------------------------|
B|-----------------------------|
G|---9b-9b-9b-9b-9b-9b-9b-9b---|
D|-----------------------------|
A|-----------------------------|
E|-----------------------------|

Guitar II plays this in the background of the verses 
and as a solo a after the 2nd verse
e|--------------8-8-9--9-8-------------------------------|
B|-------------------------11--10-11-10-8-----10-10-11---|
G|---10-10-10-----------------------------10-------------|
D|-------------------------------------------------------|
A|-------------------------------------------------------|
E|-------------------------------------------------------|
Tap to rate this tab
# A B C D E F G H I J K L M N O P Q R S T U V W X Y Z