Song name
# A B C D E F G H I J K L M N O P Q R S T U V W X Y Z

Sleipnir - Alkoholiker tab

Sleipnir - Alkoholiker

Diese version ist zu 99 prozent korrekt :)

spielt das über das original lied, ihr werdet kaum eine falsche note hören!

Tabbed by Querschnitt
(puntja@hotmail.com)


riff 1
e------------------------------------|
b------------------------------------|
g------------------------------------|     Das ist das Intro, wird 3 mal gespielt
d-----0-------0-------0-----0--------|     Beim dritten mal kommt dann:
a---5---5---4---4---2-----4----4-----|
e-7-------5-------3-----5----5-------|


riff 2
e-------------------|
b-------------------|
g-------------------|
d-----0-------0-----|
a---5---5---4---4---|
e-7-------5-------3-|


Das ist die strophe, das wird 7 mal gespielt.. beim 8ten mal siehe riff 2

e---------------------------------|
b---------------------------------|
g---------------------------------|
d-----0-------0-------0-------0---|
a---5---5---4---4---2---3---4---4-|
e-7-------5-------3-------5-------|


riff 3

e------------------------------------|
b------------------------------------|
g------------------------------------|     das ist der refrain. der wird 3 mal gespielt..
d-----0-------0-------0-----0--0-----|     dann wieder riff 2
a---5---5---4---4---2-----2----------|
e-7-------5-------3-----3----3-------|
Tap to rate this tab
 
# A B C D E F G H I J K L M N O P Q R S T U V W X Y Z