Sleipnir - Alles Gut Fur Deutschland tab

Sleipnir  -  Alles Gut Für Deutschland


    
    F#m                        D       Bm
e|---------------------------------------------------------------------|
B|--3-3-3-2--0-----------3-3-3-2--0----0-------------------------------|
G|-------------2--------------------2----------------------------------|
D|----------------4----------------------------------------------------| x2
A|---------------------------------------------------------------------|
E|---------------------------------------------------------------------|



F#m                                     D     Bm
Atomkraft läuft in Deutschland zu Recht aus.
        F#m                            D     Bm
Doch in Russland baut man alles wieder auf.
       F#m                                    D       Bm
In den deutschen Bergbau wird nicht mehr investiert.
        E
Aber im Ostblock jeder Unsinn subventioniert!



F#m      D             A                   E
Soll das alles gut für Deutschland sein?
F#m      D             A                   E
Soll das alles gut für Deutschland sein?
        F#m                  D         F#m            D  
Und ich frage mich wohin das führt und ihr es nicht erkennt.
F#m     D               E      D
Das ihr blind ins Elend rennt.


    
    F#m                        D       Bm
e|---------------------------------------------------------------------|
B|--3-3-3-2--0-----------3-3-3-2--0----0-------------------------------|
G|-------------2--------------------2----------------------------------|
D|----------------4----------------------------------------------------| x2
A|---------------------------------------------------------------------|
E|---------------------------------------------------------------------|


Guitar 2:    
    F#m                        D       Bm
e|-------------0--2-----------------4--5--4--2-------------------------|
B|--3-3-3-2--0-----------3-3-3-2--0------------------------------------|
G|---------------------------------------------------------------------|
D|---------------------------------------------------------------------| x2
A|---------------------------------------------------------------------|
E|---------------------------------------------------------------------|


F#m                                      D     Bm
Pädhophile kommen einfach wieder aus dem Bau.
         F#m                                     D     Bm
Denn sie sind ja nicht blöde, sondern ganz schön schlau.
      F#m                                 D     Bm
Jeder weiß sie sind nicht in ihren Köpfen krank,
     E
Hört auf zu diskutieren, werft die Schweine, werft sie aus dem Land!



F#m      D             A                   E
Soll das alles gut für Deutschland sein?
F#m      D             A                   E
Soll das alles gut für Deutschland sein?
        F#m                  D         F#m            D  
Und ich frage mich wohin das führt und ihr es nicht erkennt.
F#m     D               E      D
Das ihr blind ins Elend rennt.                                          x4
Tap to rate this tab
 
# A B C D E F G H I J K L M N O P Q R S T U V W X Y Z