Guitaretab - guitar tabs
Song name
# A B C D E F G H I J K L M N O P Q R S T U V W X Y Z

Slick Idiot - Get Down tab

Tabbed by: Jesse (my step-father)
Email: bwenner@gmail.com


e--------------------------------------------------------------------------|
B--------------------------------------------------------------------------|
G--------------------------------------------------------------------------|
D-----5-----7-------------6-----5-------------5-----7-----6-----5-----3----|
A-----3-----5-------------6-----5-------------3-----5-----6-----5-----3----|
E--0-----0-----0-0-00000--6--0--5--0-0-00000-----0-----0--6--0--5--0--3----|

----------------------|
----------------------|
----------------------|
-----5----------------|
-----3----------------|
--0-----0-0-00000-----|

---------------------------------------------------------------------------|
---------------------------------------------------------------------------|
---------------------------------------------------------------------------|
-----5-----7-------------6-----5-------------5-----7-----6-----5-----3-----|
-----3-----5-------------6-----5-------------3-----5-----6-----5-----3-----|
--0-----0-----0-0-00000--6--0--5--0-0-00000-----0-----0--6--0--5--0--3-----|

-----------------------|
-----------------------|
-----------------------|
-----6/5/6/5/6---------|
-----4/7/4/7/4---------|
--0--------------------|
[ Tab from: http://www.guitaretab.com/s/slick-idiot/158844.html ]
---------------------------------------------------------------------------|
---------------------------------------------------------------------------|
---------------------------------------------------------------------------|
-----5-----7-------------6-----5-------------5-----7-----6-----5-----3-----|
-----3-----5-------------6-----5-------------3-----5-----6-----5-----3-----|
--0-----0-----0-0-00000--6--0--5--0-0-00000-----0-----0--6--0--5--0--3-----|

----------------------|
----------------------|
----------------------|
-----5----------------|
-----3----------------|
--0-----0-0-00000-----|

---------------------------------------------------------------------------|
---------------------------------------------------------------------------|
---------------------------------------------------------------------------|
-----5-----7-------------6-----5-------------5-----7-----6-----5-----3-----|
-----3-----5-------------6-----5-------------3-----5-----6-----5-----3-----|
--0-----0-----0-0-00000--6--0--5--0-0-00000-----0-----0--6--0--5--0--3-----|

---------------------------------------------------------------------------|
---------------------------------------------------------------------------|
---------------------------------------------------------------------------|
-----6/5/6/5/6-----3-----6/5/6/5/6-----3-----6/5/6/5/6-----3-----6/5/6/5/6-|
-----4/7/4/7/4-----3-----4/7/4/7/4-----3-----4/7/4/7/4-----3-----4/7/4/7/4-|
--0-------------0--3--0-------------0--3--0-------------0--3--0------------|

----------------------|
----------------------|
----------------------|
-----3--3--0----------|
-----3--3--0----------|
--0--3--3--0----------|


Official band page: http://www.slickidiot.com/
Related for Get Down tab