Guitaretab - guitar tabs
Song name
# A B C D E F G H I J K L M N O P Q R S T U V W X Y Z

Slick Shoes - Angel tab

Slick Shoes - Angel

Tab by Punkwolf

It's not complete yet, but it's pretty good if you just want to play it with one
guitar and sing along. I'm not sure about the chorus, but it doesn't sound too bad.

e|-------------------------------------------------------------------|
B|-------------------------------------------------------------------|
G|-------------------------------------------------------------------|
D|-------------------------------------------------------------------|
A|--6---6-6-4---4-4-2---2-2-1---1-1-2---2-2-1---1-1-2---2-2-2---1----|
E|----77-7----66-6----44-4----22-2----44-4----22-2----44-4----2---2--|

e|----------------------------|
B|----------------------------|
G|--4~-3-4-3----3-4-3---------|
D|-----------4--------2--6-4--|
A|----------------------------|
E|----------------------------|

e|-----------------------------------------------------|
B|-----------------------------------------------------|
G|--4-4-4-4-11-11-11-11-8-8-8-8-6-6-6-6-4~-8-8-6--4-6--|
D|--4-4-4-4-11-11-11-11-8-8-8-8-6-6-6-6-4~-------------|
A|--2-2-2-2--9--9--9--9-6-6-6-6-4-4-4-4-2~-6-6-4--2-4--|
E|-----------------------------------------------------|

e|---------------------------------------------------------|
B|---------------------------------------------------------|
G|--4-4-4-4-4-4-11-11-11-11-8-8-8-8-6-6-6-6-4~-8-8-6--4-3--|
D|--4-4-4-4-4-4-11-11-11-11-8-8-8-8-6-6-6-6-4~-------------|
A|--2-2-2-2-2-2--9--9--9--9-6-6-6-6-4-4-4-4-2~-6-6-4--2-1--|
E|---------------------------------------------------------|

4x
e|----------------------| 
B|----------------------|
G|----------------------|
D|----------------------|
A|--2-9--2-6--2-4--9-6--|
E|----------------------|

e|----------------------|
B|----------------------|
G|--4-4-4---------------|
D|--4-4-4---------------|
A|--2-2-2--2-1-1-2-1----|
E|-------------------2--|
[ Tab from: http://www.guitaretab.com/s/slick-shoes/128549.html ]
e|-----------------------------------------------|
B|-----------------------------------------------|
G|--9-9-9-9-11-11-11-11-13-13-13-13-11-11-11-11--|
D|--9-9-9-9-11-11-11-11-13-13-13-13-11-11-11-11--|
A|--7-7-7-7--9--9--9--9-11-11-11-11--9--9--9--9--|
E|-----------------------------------------------|

2x
e|-------------------------------------|
B|-------------------------------------|
G|--9-9-9-9-11-11-11-11-13-11-9-4-4-4--|
D|--9-9-9-9-11-11-11-11----------------|
A|--7-7-7-7--9--9--9--9-11--9-7-2-2-2--|
E|-------------------------------------|

4x
e|---------------|
B|---------------|
G|--4-3-4-6-4-3--|
D|--4-3-4-6-4-3--|
A|--2-1-2-4-2-1--|
E|---------------|

e|-----------------------------------------|
B|-----------------------------------------|
G|----4-3-------3-4---4-3------------------|
D|--2~----4/6/4-----2~----4~--9-8-8-9-8----|
A|--------------------------------------9--|
E|-----------------------------------------|

e|-----------------------------------------------|
B|-----------------------------------------------|
G|--9-9-9-9-11-11-11-11-13-13-13-13-11-11-11-11--|
D|--9-9-9-9-11-11-11-11-13-13-13-13-11-11-11-11--|
A|--7-7-7-7--9--9--9--9-11-11-11-11--9--9--9--9--|
E|-----------------------------------------------|

2x
e|-------------------------------------|
B|-------------------------------------|
G|--9-9-9-9-11-11-11-11-13-11-9-4-4-4--|
D|--9-9-9-9-11-11-11-11----------------|
A|--7-7-7-7--9--9--9--9-11--9-7-2-2-2--|
E|-------------------------------------|

e|---------------|
B|---------------|
G|---------------|
D|---------------|
A|--2-1-1-2-1----|
E|------------2--|

e|-----------------------------------------------|
B|-----------------------------------------------|
G|--9-9-9-9-11-11-11-11-13-13-13-13-11-11-11-11--|
D|--9-9-9-9-11-11-11-11-13-13-13-13-11-11-11-11--|
A|--7-7-7-7--9--9--9--9-11-11-11-11--9--9--9--9--|
E|-----------------------------------------------|

2x
e|-------------------------------------|
B|-------------------------------------|
G|--9-9-9-9-11-11-11-11-13-11-9-4-4-4--|
D|--9-9-9-9-11-11-11-11----------------|
A|--7-7-7-7--9--9--9--9-11--9-7-2-2-2--|
E|-------------------------------------|

e|--------------------------------------|
B|--------------------------------------|
G|--4~---4-4-444-4-4-444----------------|
D|--4~---4-4-444-4-4-444----------------|
A|--2~---2-2-222-2-2-222--Fades out...--|
E|--------------------------------------|





Related for Angel tab
×
Angel