Song name
# A B C D E F G H I J K L M N O P Q R S T U V W X Y Z

Slick Shoes - Bounce tab

e-------------------------------------------------------------|
b-------------------------------------------------------------|
g-------------------------------------------------------------|
d--9----------------------------------------------------------|
a--7--9---7-7-7-7---7--7--------------------------------------|
e-----7---4-4-4-4---4--4---5-5-5-5-5-5-4-0--7-7-7-7-7-5-4-0---|
          pm   pm


e-----------------------------------------------------------|
b-----------------------------------------------------------|
g-----------------------------------------------------------|
d--9---------------------------------9----------------------|
a--7--9---7-7-7-7--7--7---7-7-7-6-9--7-9--------------------|
e-----7---4-4-4-4--4--4---5-5-5-4-7----7--------------------|
          pm   pm




from the album "rusty"
Tap to rate this tab
# A B C D E F G H I J K L M N O P Q R S T U V W X Y Z