Song name
# A B C D E F G H I J K L M N O P Q R S T U V W X Y Z

Slick Shoes - For Better For Worse tab

Slick Shoes - For Better For Worse
Tabbed By: travis
EMail: atravis81@aol.come--------------------------------------------------------------
b--------------------------------------------------------------
g--------------------------------------------------------------
d-----5-----3-----2-----2-------------0-----2-----2-----2------
a-3-3---3-3---3-3---3-3---------3------------------------------
e---------------------------1-1---1-1---1-1---1-1---1-1--------

e--------------------------------------------------------------
b-----------------------------1-----0----------------------------
g-----5-----4----------------------------------------------------
d-----------------5-----5-----------------5-----5----5--------------
a-0-0---0-0---0-0---0-0------------------------------------------------
e-------------------------1-1---1-1---1-1---3-3---3-3--------------------
Tap to rate this tab
 
# A B C D E F G H I J K L M N O P Q R S T U V W X Y Z