Guitaretab - guitar tabs
Song name
# A B C D E F G H I J K L M N O P Q R S T U V W X Y Z

Slick Shoes - My Ignorance tab

Copyright info:
Artist: Slick Shoes
Track: 1. My Ignorance
Album: Slick Shoes

Tabbed by Sean Green    (the_bunglist@yahoo.com)


INTRO  

E ---------------1----5----3----------------------------------------------|
A -3-------------3----7----5----------------------------------------------|
D -5-------5-----3----7----5----------------------------------------------|
G -5---5-4----------------------------------------------------------------|
B ------------------------------------------------------------------------|
e ------------------------------------------------------------------------|


VERSE 


     "Last night......"
E -5----------------1-----------------------------------------------------|
A -7----------------3----------------3----3----2--0--2--------------------|
D -7----------------3----------------5----5----5--2--4--------------------|
G -----------------------------------5----5----5--2--4--------------------|
B ------------------------------------------------------------------------|
e ------------------------------------------------------------------------|


BRIDGE 

            "That it......."
E -6---5------------------3-----------------------------------------------|
A -8---7-----5------------5-----------------------------------------------|
D -8---7-----7------------5-----------------------------------------------|
G -----------7------------------------------------------------------------|
B ------------------------------------------------------------------------|
e ------------------------------------------------------------------------|


CHORUS part1 
[ Tab from: http://www.guitaretab.com/s/slick-shoes/46002.html ]
  "Second chance...."
E -1------------------5------------3--------------------------------------|
A -3------------------7------------5--------------------------------------|
D -3------------------7------------5--------------------------------------|
G ------------------------------------------------------------------------|
B ---------------------------------------------6--5--3--5-----------------|
e ------------------------------------------------------------------------|


CHORUS part 2 ( the slow bit ) 

  "Whats the point....."                          "Why do i......"
E -----------1---5--3-----end with--5--3--------5--------3-------5(pm)----|
A -3---------3---7--5---------------7--5--------7--------5-------7--------|
D -5---------3---7--5---------------7--5--------7--------5-------7--------|
G -5----------------------------------------------------------------------|
B ------------------------------------------------------------------------|
e ------------------------------------------------------------------------|


SOLO THING


E --------------------------------------------------------------------|
A --------------------------------------------------------------------|
D --------------------------------------------------------------------|
G -5--5--5--5--5--5--5--5--0--0--0--0--0--0--0--0--0------------------|
B -5--5--5--5--6--5--3--5--1--1--1--1--0--0--0--0--0-x2---------------|
e --------------------------------------------------------------------|

(The rhythm is the same as above, i just had to squash for this site)
E ---------------------------------------------------------------3----|
A ---------------------------------------------------------------5----|
D ---------------------------------------------------------------5----|
G -5-5-5-5-5-5-5-5-5-5-5-5-5-5-5-5-5-5--5--5--5--5--5--5--5-----------|
B -6-6-6-6-8-8-8-8-6-6-6-6-8-6-5-6-5-6--6--6--6--8--8--8--8-----------|
e --------------------------------------------------------------------|

These are all the bits to the song.
Listen to the CD to get all the ryhthms etc.

Hope this is helpful!!!
Related for My Ignorance tab
Advertisement will be closed in 10 seconds