Song name
# A B C D E F G H I J K L M N O P Q R S T U V W X Y Z

Slick Shoes - Carpenteria tab

this is the absolute tightest song i have ever heard i swear. the intro is soooo tough 
i finally got it

artist:Slick Shoes
album:Far From Nowhere
song:Carpenteria(track 2)
Giutarists:David Stoltenberg and Jonah Peterson
Key:^=bend s^=slight bend p=pullof and h=well you know *=harmonics

here goes

P.S. please give me a good rating i tried my hardest

intro guitar 1
e---------------------------------------------------------------------------|
B--10^(12)10-----10-8-7-----7-----------19s^---10-----10-----7--------------|
G------------7-7--------9-7---9-7-----7------7----7-6----6-4---4-4p2p0------|
D---------------------------------7h9---------------------------------------|
A---------------------------------------------------------------------------|
E---------------------------------------------------------------------------|

e---------------------------------------------------------------------------|
B---------------------------------------------------------------------------|
G---------------------------------------------------------------------------|
D--4p2p0-------------4(4)--4--7-5-4-5--------------2h4---7-----7-----4------|
A--------4p2p0h2h4-5-----5------------5--------2h5-----5---5-4---4-2---2----|
E---------------------------------------3^-3h5------------------------------|

G--------------5----|
D--4p2p0-4p2p0---5--|


only intro for now but ill tab the whole thing later

peace
Tap to rate this tab
# A B C D E F G H I J K L M N O P Q R S T U V W X Y Z