Guitaretab - guitar tabs
Song name
# A B C D E F G H I J K L M N O P Q R S T U V W X Y Z

Slightly Stoopid - Jimi Baby tab

----------------------------------------------------------------------------
			     Slightly Stoopid  Jimi Baby
----------------------------------------------------------------------------

Tabbed by: Manu (AXmichigan youtube tooo)
special thanks to cknutzon on youtube

Quick Jimi Lesson

Jimi Hendrix played a lil trick like this
He had, say a D barre chord
Played normally
e   5
B   7
G   7
D   7
A   5
E   x

And he slid his ring finger on the a string, and barred the same three notes with the index finger

e   
B     7 
G     7
D     7
A   7/9
E  

I think thats (partly at least?) why he called it jimi baby

this version is tabbed from the slightly stoopid dvd version of jimi baby


Tuning: Standard

(just kind of arpeggiate the chords in the beginning)

        D 		 A                  E

e|----------------------------------------------------0--------------------|
B|-----7-----7-----7-------2-------2-----2------------0--------------------|
G|-------7-----7-------------2-------2---------1---------------------------|
D|--------7--------------------2-----------------2-------------------------|
A|---9-----9-----9-------4-------4-----4-----2-----2-----------------------|
E|--------------------------------------------------------22-33-44-55------|

        D 		 A                  E

e|----------------------------------------------------0--------------------|
B|-----7-----7-----7-------2-------2-----2------------0---0h2-4-5/---------|
G|-------7-----7-------------2-------2---------1---------------------------|
D|--------7--------------------2-----------------2-------------------------|
A|---9-----9-----9-------4-------4-----4-----2-----2-----------------------|
E|-------------------------------------------------------------------------|

e|--15p12----12--------b12---b12----12-15p12-----12------------------------|
B|--------15----15p12--b15---b15--------------15----15p12----12------------|
G|--------------------------------------------------------14----14p12------|
D|--------------------------------------------------------------------14---|
A|-------------------------------------------------------------------------|
E|-------------------------------------------------------------------------|

    D 		 A                  E

e|-------------------------------------------------------------------------|
B|-----7-----7-----7-------2-------2-----2-------------0-------------------|
G|-------7-----7-------------2-------2---------1-------1-------------------|
D|--------7--------------------2-----------------2-----2-------------------|
A|---9-----9-----9-------4-------4-----4-----2-----2---2-------------------|
E|-------------------------------------------------------------------------|

     V  ^  V                           V  ^  V

e|---7--7--x---------------------------5--5--x-----------------------------|
B|---9--9--x---------------------------7--7--x-----------------------------|
G|---9--9--x---------------------------7--7--x-----------------------------|
D|---9--9--x---7/9---------------------7--7--x----5/7----------------------|
A|---7--7--x-------9/11\9--------------5--5--x--------7/9\7----------------|
E|------------------------(0)-7/9\7-------------------------(0)-5/7\5------|


     V  ^  V                           V  ^  V
[ Tab from: http://www.guitaretab.com/s/slightly-stoopid/106265.html ]
e|---7--7--x---------------------------5--5--x--3--5p3---3-----------------|
B|---9--9--x---------------------------7--7--x---------5---5p3-5p3---3-----|
G|---9--9--x---------------------------7--7--x---------------------4---4/2-|
D|---9--9--x---7/9---------------------7--7--x-----------------------------|
A|---7--7--x-------9/11\9--------------5--5--x-----------------------------|
E|------------------------(0)-7/9\7----------------------------------------|


    V  ^  V                      V  ^  V

e|--0--0--x--------------------5--5--x-------------------------------------|
B|--0--0--x--------------------7--7--x-------------------------------------|
G|--1--1--x--1-2-4-2-1---------7--7--x-12-14-12\11-11h12p11v-12------------|
D|--2--2--x------------4-2-1-0-7--7--x-------------------------14-14-12-14\|
A|--2--2--x--------------------5--5--x-------------------------------------|
E|--0--0--x----------------------------------------------------------------|

e|-------------------------------------------------------------------------|
B|--------------------10-8-7---8-7----8-7----------------------------------|
G|-1-2-4-2-1-----------------9----9-7----9-7-7h9---------------------------|
D|-----------4-2-1-0-------------------------------------------------------|
A|-------------------------------------------------------------------------|
E|-------------------------------------------------------------------------|

									  
e|--7--7--x----------------------5--5--x-----------------------------------|
B|--9--9--x----------------------7--7--x---------------------------------o-|
G|--9--9--x--9--7--6-------------7--7--x--6h7p6----6-----------------------|
D|--9--9--x----------9--7--6-----7--7--x---------9----7--6h7p6---6---------|
A|--7--7--x------------------9---5--5--x-----------------------9---9--7--o-|
E|-------------------------------------------------------------------------|

e|-------------------------------------------------------------------------|
B|---------11-8-7---8-7----------------------------------------------------|
G|-9-11b-7--------9-----7-7h9----------------------------------------------|
D|-------------------------------------------------------------------------|
A|-------------------------------------------------------------------------|
E|-------------------------------------------------------------------------|

e|--15p12----12--------b12---b12----12-15p12-----12------------------------|
B|--------15----15p12--b15---b15--------------15----15p12----12------------|
G|--------------------------------------------------------14----14p12------|
D|--------------------------------------------------------------------14---|
A|-------------------------------------------------------------------------|
E|-------------------------------------------------------------------------|

e|-------------------------------------------------------------------------|
B|-------------------------------------------------------------------------|
G|--12-----------------------12-------------------0-----------0------------|
D|-----14p12-14-12-12-12h14-----12-12h14\---0--2-----2--0--2----2----------|
A|-------------------------------------------------------------------------|
E|-------------------------------------------------------------------------|

Repeat intro


enjoyy


| /  slide up
| \  slide down
| h  hammer-on
| p  pull-off
| ~  vibrato
| +  harmonic
| x  Mute note
===============================================================================
Related for Jimi Baby tab