Guitaretab - guitar tabs
Song name
# A B C D E F G H I J K L M N O P Q R S T U V W X Y Z

Slightly Stoopid - Reward For Me tab

Slightly Stoopid - Reward for Me
Album: Chronchitis
Tabbed by T Nos


INTRO:

    x4      x1      x8           x4     x1      x8
e|---0--x---2---x---3---|    e|---0--x---2---x---3---|    
B|---1--x---2---x---3---|    B|---1--x---2---x---3---|
G|---0--x---3---x---0---|    G|---0--x---3---x---0---|
D|---2--x-------x---0---|    D|---2--x-------x---0---|
A|---3--x-------x---2---|    A|---3--x-------x---2---|
E|------x-------x---3---|    E|------x-------x---3---|



THEN:
[ Tab from: http://www.guitaretab.com/s/slightly-stoopid/107799.html ]
    x7                                   x4   x1   x8
e|---0----2--2--2--2--3--2--0h2--2--2-----0----2----3-------------|
B|---1----3--3--3--3--3--3---3---3--3-----1----3----3-------------|
G|---0----2--2--2--2--2--2---2---2--2-----0----2----0-------------|
D|---2------------------------------------2---------0-------------|
A|---3------------------------------------3---------2-------------|
E|--------------------------------------------------3-------------| 

That is a bare version of everything but for the most part is the whole song.
Related for Reward For Me tab