Song name
# A B C D E F G H I J K L M N O P Q R S T U V W X Y Z

Slightly Stoopid - Train 1 tab

Song: Train 1
Artist: Slightly Stoopid
Album: Slightly Not Stoned Enough To Eat Breakfast Yet Stoopid


This is a cool new track off Stoopid's newest album. It goes a little something like this.


e-----11-9---------11-9--------------12-10------|
b---------12-10--------12-10-10-9---------14-12-|
g-7/9-----------7/9---------------7/9-----------|
d-----------------------------------------------|
a-----------------------------------------------|
E-----------------------------------------------|


1st ending            2nd ending
e----12-10----------|-12p10---------------------|
b---------14-12-10-9|------14-12p10-------------|
g-7/9---------------|--------------131197-7-----|
d-------------------|--------------------9-97---|
a-------------------|------------------------97-|
E-------------------|---------------------------|


This is just something to get you started... It'd be great if someone could finish 
ill try to do some more work on it and repost it if nobody else does.

Post comments and corrections here or email me at waddupdawg123@yahoo.com
Tap to rate this tab
# A B C D E F G H I J K L M N O P Q R S T U V W X Y Z