Song name
# A B C D E F G H I J K L M N O P Q R S T U V W X Y Z

Slightly Stoopid - Thinkin Bout Cops tab

e|-----------------|
B|-----------------|
G|-----------------| x3
D|-----------------|
A|----5--5-7-------|
E|---5--5----0-0---|

e|--------------2-2-2-0-0--|
B|--------------3-3-3-0-0--|
G|--------------2-2-2-0-0--|
D|-------------------------|
A|----5--5-7-7-------------|
E|---5--5------------------|

e|-----------------|
B|-----------------|
G|-----------------| x3
D|-----------------|
A|----5--5-7-------|
E|---5--5----0-0---|

e|---------------2-2-2-0-0-------3-2-0------------2-2-0-|
B|---------------3-3-3-0-0-------3-3-0------------3-3-0-|
G|---------------2-2-2-0-0-------0-2-1-------1----0-2-1-|
D|-------------------------------0---2----2-2-2---0---2-|
A|----5--5-7-----------------5-7-2---2---2-2---2--2---2-|
E|---5--5----0-0------------5----3---0--0-------0-3---0-|
Tap to rate this tab
 
# A B C D E F G H I J K L M N O P Q R S T U V W X Y Z