Song name
# A B C D E F G H I J K L M N O P Q R S T U V W X Y Z

Slightly Stoopid - Open Road tab

Bout time someone tabbed this, i aint got it 100% but its on its way and hopefully 
can improve on it, ull hafta figure out the rhythm and extra plucks n such because im lazy.


Intro                     Gt2
e|--3-3-3------------|-------------------------------------------------------------|
B|--4-4-5------------|-------------------------------------------------------------|
G|--5-5-5------------|-------------------------------------------------------------|
D|--5-5-5---X2-------|------5-5-5-5-5-5-5------------------------------------------|
A|--3-3-3------------|-------------------------------------------------------------|
E|-------------------|-------------------------------------------------------------|
Lead                                     Second time round it ends like this
e|-------------------------------------|--------------------------------------------|
B|-------------------------------------|--------------------------------------------|
G|-------------------------------7-5---|--------------------------------------------|
D|---------------------7---7-7-------7-|----4-7-4-5-3-------------------------------|
A|-3-----------0-4-5\7---5--4--5-------|--5-----------7-5---------------------------|
E|---0-1-2-3-4-------------------------|--------------------------------------------|

Solo 1
e|---5p3-----5\7-5-3-5---------------------------------------------------------|
B|-------5p3-----------6-6-5h6p5/3---6h8p6/5-3---------------------------3-----|
G|---------------------------------------------5-2\4-2-0-2---2-2-2-2-4\5---5-4-|
D|-----------------------------------------------------------------------------|
A|-----------------------------------------------------------------------------|
E|-----------------------------------------------------------------------------|
Solo 2
e|----12-10-8-7-5-7-8\10-8-7\10-10-10-10-12p10/8-10p8/7-8-7-5-3-5--5-5-5-5-7-8\10-8-7-|
B|------------------------------------------------------------------------------------|
G|------------------------------------------------------------------------------------|
D|------------------------------------------------------------------------------------|
A|------------------------------------------------------------------------------------|
E|------------------------------------------------------------------------------------|
Chords
 Cminor, C, A, D, C#, D, C, A, D, G, F, E


| /  slide up
| \  slide down
| h  hammer-on
| p  pull-off
| ~  vibrato
| +  harmonic
| x  Mute note
===============================================================================
Tap to rate this tab
# A B C D E F G H I J K L M N O P Q R S T U V W X Y Z