Song name
# A B C D E F G H I J K L M N O P Q R S T U V W X Y Z

Slightly Stoopid - Sun Is Shining tab

Help us improve GuitareTab! Take a short survey!
Intro:

e|--14---9h10p9----12h13p12--7h8p7---9h10p9---7---4/5----|
B|--15---10--------13--------8-------10-------8---5/6----|
G|--14---9---------12--------7-------9--------7---4/5----|
D|-------------------------------------------------------|
A|--------------(note: when playing this, hit the--------|
E|--------------whole chord as you sus in the notes)-----|


e|---2h3p2h0h2-------------------------------------------|
B|---3------------------this outro is painfully easy-----|
G|---2--------------------listen to the song and you-----|
D|------------------------will have it down in 2 seconds-|
A|-------------------------------------------------------|
E|-------------------------------------------------------|

Verse:

e|-------------------------------------------------------|
B|-------------------------------------------------------|
G|-------------------------------------------------------|
D|-------0------0----4h5p4---4-5-7---------------5-------|
A|---0h2---2////5----------5--------5p3-5p3p0------5-4-0-|
E|---------------------------------------------3---------|


e|--------------------------x-3-3-x -2h3p2p0h2-----------|
B|----------------------2-2-x-3-3-x--3-------------------|
G|----------------------2-2-x-0-0-x--2-------------------|
D|------7-7-------------2-2-x-0-0-x----------------------|
A|--7/9---7----5-4-0----0-0-x-2-2-x----------------------|
E|--------------------------x-3-3-x----------------------|

	Two guitars are used in this song, and the chords do overlap the picking.  So find a friend.

Now… the verse is played twice before the vocals and then twice during the vocals… then 
after the vocals:

e|-------------3-x-3--------------2-x-2----------------|
B|-------------3-x-3--------------3-x-3----------------|
G|-------------0-x-0--------------2-x-2----------------|
D|------0------0-x-0-------0---0--0-x-0----------------|
A|--0h2---2----2-x-2---0h2---2------x------------------|
E|----------3--3-x-3----------------x------------------|
									Play twice
e|--------------------3----------------------------------------|
B|---7-7-7-6-5---5-4--3----------------------------------------|
G|---7-7-7-6-5---5-4--4---------------------7p5---5------------|
D|---7-7-7-6-5---5-4--5-------4h5p4----4-5-7------7---7-5-7----|
A|---5-5-5-4-3---3-2--5--0-3-5-------5-------------------------|
E|--------------------3----------------------------------------|


e|-------------------------------------------------------|
B|-------------------------------------------------------|
G|-5h7p5 7-----------------------------------------------|
D|-------------------------------------------------------|
A|-------------------------------------------------------|
E|-------------------------------------------------------|


The verse is now played twice more, and just incase you forgot what it looks like:

e|-------------------------------------------------------|
B|-------------------------------------------------------|
G|-------------------------------------------------------|
D|-------0------0----4h5p4---4-5-7---------------5-------|
A|---0h2---2////5----------5--------5p3-5p3p0------5-4-0-|
E|---------------------------------------------3---------|


e|--------------------------x-3-3-x -2h3p2p0h2-----------|
B|----------------------2-2-x-3-3-x--3-------------------|
G|----------------------2-2-x-0-0-x--2-------------------|
D|------7-7-------------2-2-x-0-0-x----------------------|
A|--7/9---7----5-4-0----0-0-x-2-2-x----------------------|
E|--------------------------x-3-3-x----------------------|

Now the Intro is repeated as an outro:

e|--14---9h10p9----12h13p12--7h8p7---9h10p9---7---4/5----|
B|--15---10--------13--------8-------10-------8---5/6----|
G|--14---9---------12--------7-------9--------7---4/5----|
D|-------------------------------------------------------|
A|--------------(note: when playing this, hit the--------|
E|--------------whole chord as you sus in the notes)-----|


e|---2h3p2h0h2-------------------------------------------|
B|---3------------------this outro is painfully easy-----|
G|---2--------------------listen to the song and you-----|
D|------------------------will have it down in 2 seconds-|
A|-------------------------------------------------------|
E|-------------------------------------------------------|

I sincerely apologize for any mistakes I may have made in this tab.  It is a compilation 
all the dreadfully wrong tabs I found online, and all the corrections I made… have fun 
it cause slightly stupid rocks…

this tabs as i said isn't that hard... but you need to have you stuff down as far as 
strumming and mild finger picking to play it...
Related for Sun Is Shining tab