Guitaretab - guitar tabs
Song name
# A B C D E F G H I J K L M N O P Q R S T U V W X Y Z

Slightly Stoopid - Officer tab

-------------------------------------------------------------------------------
			     Officer - Slightly Stoopid
-------------------------------------------------------------------------------
Tabbed by: jojobeasty
Tuning:standard

Intro (guitar 1 with delay)
e|--------0h4(x4)------4h5-(x4)-----5h7-(x4)------ 4h5-(x4)-|
B|-----------------------------------------------------------|
G|-----------------------------------------------------------|	(x2)
D|-----------------------------------------------------------|
A|-----------------------------------------------------------|
E|-----------------------------------------------------------|

than the verse kicks in while guitar one plays riff 1

Verse (guitar 2 clean)
(4 strums each chord - reggae style)	
[ Tab from: http://www.guitaretab.com/s/slightly-stoopid/145664.html ]
	E		A		B		A
e|------9--------------5--------------7--------------5----------------------|
B|------9--------------5--------------7--------------5----------------------|
G|------9--------------6--------------8--------------6----------------------|  (x4)
D|------9--------------7--------------9--------------7----------------------|
A|------7--------------7--------------9--------------7----------------------|
E|------X--------------5--------------7--------------5----------------------|

Riff (guitar 1)

e|------4~~~-----------5~~~-----------7~~~-----------5~~~--------------------|  (x4)
B|---------------------------------------------------------------------------|

Verse (just guitar 2)
	E		A
It all started late on a saturday night
            B			A
Said who's got the spliffs and who's got the pint?
Related for Officer tab