Song name
# A B C D E F G H I J K L M N O P Q R S T U V W X Y Z

Slightly Stoopid - Mellow Mood tab

-------------------------------------------------------------------------------
			     Mellow Mood - Slightly Stoopid
-------------------------------------------------------------------------------

Tabbed by: buffalosoldier
Email:janegrete89@hotmail.com


There are two versions of this song...not including the live...in one the hammer 0h2 on 
'D'
isn't used but instead a quick down and up stroke of the lower notes of the G chord 320 
get confused...
This is an AWESOME song by an AWESOME band its great live and mucho fun to jam to...just 
in the key of C and youre MONEY...


Tuning: Standard

INTRO: slighlty palm muted the 'x' part is like a tap

e|----x-------------------x--------------------x------------------------------------------x-3-3--3-3----|
B|----x-------------------x------------------3-x--------------------1-------------------3-x-3-3--3-3----|
G|----x-------------0-----x------------0-----0-x------------0-----0---------------0-----0-x-0-0--0-0----|
D|----x---------0h2-0--/2-x--------0h2-0-2/4---x--------0h2-0-0h2-------------0h2-0-2/4---x-0-0--0-0----|
A|--2-x-2-2--2--0------/3-x-2--2-2-0-----3/5---x-2--2-2-0--------------2--2-2-0-----3/5---x-------------|
E|--3-x-3-3--3------------x-3--3-3-------------x-3--3-3----------------3--3-3-------------x-------------|


Verse: (one guitar can do the 12 fret harmonics for the first chord)

'Hello little darling...'

e|-----x-----------------------x-------------------x------3/5---------------------------------3-3-3-3-|
B|-12--x-----------------------x-----------------3-x------3/5-3/5\3------1-----------------3--3-3-3-3-|
G|-12--x--------------0---0----x-------0---0-----0-x----------2/4\2----0---------0---0-----0--0-0-0-0-|
D|-12--x------0--0-0--0h2-0-/2-x---0-0-0h2-0-2/4---x-0--------------0h2---0--0-0-0h2-0-2/4----0-0-0-0-|
A|-10--x------2--2-2--0-----/3-x---2-2-0-----3/5---x-2--------------------2--2-2-0-----3/5------------|
E|-----x------3--3-3-----------x---3-3-------------x-3--------------------3--3-3----------------------|


e|-----x-----------------------x--------------------x--------------------------------------------3-3-3-3-|
B|-12--x-----------------------x------------------3-x-----------------------1-----------------3--3-3-3-3-|
G|-12--x--------------0---0----x--------0---0-----0-x--------0---0--------0---------0---0-----0--0-0-0-0-|
D|-12--x------0--0-0--0h2-0-/2-x--0-0-0-0h2-0-2/4---x-0--0-0-0h2-0-----0h2---0--0-0-0h2-0-2/4----0-0-0-0-|
A|-10--x------2--2-2--0-----/3-x--2-2-2-0-----3/5---x-2--2-2-0---------------2--2-2-0-----3/5------------|
E|-----x------3--3-3-----------x--3-3-3-------------x-3--3-3-----------------3--3-3----------------------|


SOLO:

e|-------------------------------------------------------------------------------15p12----------------------|
B|----------------------------------------------------------12-12-12-12h13p12--12-----15p12-----------------|
G|------12-----12-----12-----12-12-----12-----12-----12----------------------14------------14p12-----14p12~-|
D|-12h14--12h14--12h14--12h14-----14p12--14p12--14p12--14p12------------------------------------14p12-------|
A|----------------------------------------------------------------------------------------------------------|
E|----------------------------------------------------------------------------------------------------------|

Im still workin on the licks the 2nd guitar plays in the background during the 
suggestions would be helpful


| /  slide up
| \  slide down
| h  hammer-on
| p  pull-off
| ~  vibrato
| +  harmonic
| x  Mute note
===============================================================================
Tap to rate this tab
# A B C D E F G H I J K L M N O P Q R S T U V W X Y Z