Guitaretab - guitar tabs
Song name
# A B C D E F G H I J K L M N O P Q R S T U V W X Y Z

Slightly Stoopid - Nobody Knows tab

-------------------------------------------------------------------------------
			     Nobody Knows - Slightly Stoopid
-------------------------------------------------------------------------------
Tabbed by: Sam Torok
Email: voodoonirvana@gmail.com

Tuning: Standard

Really cool song and fun little intro here. Enjoy.
[ Tab from: http://www.guitaretab.com/s/slightly-stoopid/159573.html ]
e|--------------------------7~~~~---------------------------------12---------|
B|---10------9~~~~----8--------------10------9-----8--------12b14----12b13---|
G|------9---------------7---------------9------9-----7-----------------------|
D|--------11--------------9---------------11-----9-----9---------------------|
A|---------------------------------------------------------------------------|
E|---------------------------------------------------------------------------|

e|-------------------------------------------------|
B|--10--10h12p10--9--9h10p9--8--8h10p8--7--7h8p7---|
G|-------------------------------------------------| X4
D|-------------------------------------------------|
A|-------------------------------------------------|
E|-------------------------------------------------|
Related for Nobody Knows tab