Song name
# A B C D E F G H I J K L M N O P Q R S T U V W X Y Z

Slightly Stoopid - Tom And Jerry tab

This is Jake Ness and this tab is still a work in progress. this is what i 
figured out so far and if anyone else knows anything to add to this please 
do so contact me at nessj_kula@yahoo.com for any questions.




Intro                     Gt2
e|--3-3-3------------|-------------------------------------------------------------|
B|--4-4-5------------|-------------------------------------------------------------|
G|--5-5-5------------|-------------------------------------------------------------|
D|--5-5-5---X2-------|------5-5-5-5-5-5-5------------------------------------------|
A|--3-3-3------------|-------------------------------------------------------------|
E|-------------------|-------------------------------------------------------------|
Lead                                     Second time round it ends like this
e|-------------------------------------|--------------------------------------------|
B|-------------------------------------|--------------------------------------------|
G|-------------------------------7-5---|--------------------------------------------|
D|---------------------7---7-7-------7-|----4-7-4-5-3-------------------------------|
A|-3-----------0-4-5\7---5--4--5-------|--5-----------7-5---------------------------|
E|---0-1-2-3-4-------------------------|--------------------------------------------|

Solo 1
e|---5p3-----5\7-5-3-5---------------------------------------------------------|
B|-------5p3-----------6-6-5h6p5/3---6h8p6/5-3---------------------------3-----|
G|---------------------------------------------5-2\4-2-0-2---2-2-2-2-4\5---5-4-|
D|-----------------------------------------------------------------------------|
A|-----------------------------------------------------------------------------|
E|-----------------------------------------------------------------------------|
Solo 2
e|----12-10-8-7-5-7-8\10-8-7\10-10-10-10-12p10/8-10p8/7-8-7-5-3-5--5-5-5-5-7-8\10-8-7-|
B|------------------------------------------------------------------------------------|
G|------------------------------------------------------------------------------------|
D|------------------------------------------------------------------------------------|
A|------------------------------------------------------------------------------------|
E|------------------------------------------------------------------------------------|
Chords
 Cm, C, A, D, C#, D, C, A, D, G, F, E



The second part of the song is a remake of closer to the sun which goes like this.


Intro
e|-3/5-7p5-------5-3/5/3-5p3---------3-------------------------------------------------|
B|-3/5----7p5----5-3/5/3-----5p3-----3-------------------------------------------------|
G|-4/6-------7p6-6-4/6/4---------6p4-4-------------------------------------------------|
D|-5/7-----------7-5/7/5-------------5-------------------------------------------------|
A|-------------------------------------------------------------------------------------|
E|-------------------------------------------------------------------------------------|

e|---------3p0----------------------5p0---------------|
B|---1-3p1-----1------------1/3-5p3-----3-------------|
G|---0----------------------0-------------------------| X2
D|---2----------0h2p0h2p0h2-2/4-----------0h4p0h4p0h4-|
A|---3----------------------3/5-----------------------|
E|----------------------------------------------------|
Intro Part 2
e|-------------------------------3-----------------0-------------2h3p2-0h2p0-|
B|---2h3p2---0---------------3-----3-----------1-----1---3h5p3---------------|
G|-------------2---------0-----0-----------0-----0---------------------------|
D|---------------2---------0-----------0h2---2-------------------------------| X4 I think
A|-0-------0---------0h2-------------3-------------------------4-------------|
E|-----------------3-----------------------------------5---------------------|
Then
e|-------------------------------3-----------------0-----2h3p2---0-----|
B|---2h3p2---0---------------3-----3-----------1-----1-------------2---|
G|-------------2---------0-----0-----------0-----0-------------------3-|
D|---------------2---------0-----------0h2---2---------0-------0-------|
A|-0-------0---------0h2-------------3---------------------------------|
E|-----------------3---------------------------------------------------|


| /  slide up
| \  slide down
| h  hammer-on
| p  pull-off
| ~  vibrato
| +  harmonic
| x  Mute note
Tap to rate this tab
 
# A B C D E F G H I J K L M N O P Q R S T U V W X Y Z