Guitaretab - guitar tabs
Song name
# A B C D E F G H I J K L M N O P Q R S T U V W X Y Z

Slightly Stoopid - On And On tab

This is tentative at this point. I'm pretty sure what I have so far is correct. Feel 
to add on or correct.

Slightly Stoopid

On and On

Intro

 / = slide
 h = hammer on
 p = pull off
 ~ = let ring

E:----------------------------------------|
B:---3/5--5/7--7/9--7/9--7/9~-------------|
G:----------------------------------------|
D:----------------------------------------|
A:----------------------------------------|
E:----------------------------------------|

E:----------------------------------------|
B:---5/7--7/9--9/10~----------------------|
G:----------------------------------------|
D:----------------------------------------|
A:----------------------------------------|
E:----------------------------------------|

repeat whole section x 4

then the acoustic becomes more prominent

chords for acoustic A (bar) and D (bar)
[ Tab from: http://www.guitaretab.com/s/slightly-stoopid/179931.html ]
E:----------------------------------------|
B:---9h10p9--9----------------------------|
G:---------------9------------------------|
D:------------------11~-------------------|
A:----------------------------------------|
E:----------------------------------------|

E:----------------------------------------|
B:---9h10p9--9----------------------------|
G:--------------9--11~--------------------|
D:----------------------------------------|
A:----------------------------------------|
E:----------------------------------------|

E:----------------------------------------|
B:---9h10p9--9-------------12--10--9------|
G:---------------9------9-------------11~-|
D:------------------11--------------------|
A:----------------------------------------|
E:----------------------------------------|

Repeat x 2

Singing starts and acoustic plays A and D

When he sings "What was lost has seem"

Starts playing E (bar) to D (bar)

At chorus, repeat intro riff

After chorus, play second riff beginning with 9h10p9.

This is all I have so far. I am a little uncertain about the chords but the rest should 
right on. Peace.

Robby
Related for On And On tab