Guitaretab - guitar tabs
Song name
# A B C D E F G H I J K L M N O P Q R S T U V W X Y Z

Slightly Stoopid - Living Dread tab

Slightly Stoopid - Living Dread

Use upstrokes

e-5-5-5-5-5-7-7-7-|
B-5-5-5-5-5-7-7-7-|
G-6-6-6-6-6-7-7-7-|
D-7-7-7-7-7-------|
A-----------------|
E-----------------|

Use distortion here

e----------------|
B----------------|
G----------------|
E-7-4-5----------|
A-7-4-5----------|
E-5-2-3----------|

Before solo

e-5-4-2-4-------|
B-5-5-3-5-------|
G-6-6-4-6-------|
E-7-------------|
A---------------|
E---------------|
[ Tab from: http://www.guitaretab.com/s/slightly-stoopid/181038.html ]
Solo

----------------------------------|
----------------------------------|
---------------5------7----7-9/---|
-----------5-7---7-10---10--------|
-----5-6-7------------------------|
-5-8------------------------------|


----------------------------------|
----10-13-15-13-------------------|
-12-------------14----------------|
----------------------------------|
----------------------------------|
----------------------------------|
Related for Living Dread tab