Song name
# A B C D E F G H I J K L M N O P Q R S T U V W X Y Z

Slightly Stoopid - Digital tab

Help us improve GuitareTab! Take a short survey!
-------------------------------------------------------------------------------
			     Digital - Slightly Stoopid
-------------------------------------------------------------------------------
Tabbed by: Aaron
Email:amkippy@gmail.com

Tuning:standard
verse
e|--------------------------------------------------------------|
B|--------------------------------------------------------------|
G|--------------------------------------------------------------|
D|---------------6-4-----6-4------------------------------------|
A|---3h4p3-------------------6-----3h4p3---33-4-6---------------|
E|-4-------4-444-----444-------4-4-------4----------------------|
the chorus is the same thing as the verse except a second guitar plays something 
like this on top of it
e|--------------------------------------------------------------|
B|-------9-7--------9-7-------9-7-------------------------------|
G|---5-6--------5-6-------5-6--------5h6p5---55-6-8-------------|
D|-6---------66---------6--------6-6-------6--------------------|
A|--------------------------------------------------------------|
E|--------------------------------------------------------------|

ill leave it up to you to decide which notes are palm muted
Related for Digital tab