Guitaretab - guitar tabs
Song name
# A B C D E F G H I J K L M N O P Q R S T U V W X Y Z

Slightly Stoopid - Civil Opression Dub tab

-------------------------------------------------------------------------------
			      - Slightly Stoopid
-------------------------------------------------------------------------------
Tabbed by: sublime57
Email: subllime5757@yahoo.com
[ Tab from: http://www.guitaretab.com/s/slightly-stoopid/182519.html ]
Tuning: Standard
Intro: Add a little spice to some of the notes and you pretty much have the bass tab.
e|-------------------------------------------------------------------------------------|
B|-------------------------------------------------------------------------------------|
G|-------------------------------------------------------------------------------------|
D|-----9--7-6--------------------7777--5-4---------------------------------------------|
A|--7---------9---------7-5-4-5------------5-------------------------------------------|
E|-------------------5-----------------------------------------------------------------|
Chords:E(x2)A(x2)  D(x4)
e|----------5---------------------------------------------------------------------|
B|-----9----5------7--------------------------------------------------------------|
G|-----9----6------7--------------------------------------------------------------|
D|-----9----7------7--------------------------------------------------------------|
A|-----7----7------5--------------------------------------------------------------|
E|----------5---------------------------------------------------------------------|
Related for Civil Opression Dub tab
×
Civil Opression Dub