Song name
# A B C D E F G H I J K L M N O P Q R S T U V W X Y Z

Slightly Stoopid - I Metal tab

J-Fox

I have been playing for about 6 years and this is my first attempt at a tab so
sorry if it sucks if its good or bad gimme some feedback.
J-fox77@hotmail.com

Intro

e-----------------------------|
B-----------------------------|
G-----------------------------|  x3
D-9-------9-------9-----888---|
A-9-------9-------9-----888---|
E-7-77777-7-77777-7-777-666---|
      pm      pm    pm

on 4th

e----
B----
G----
D-887  X4
A-887
E-665


intro 3x
then...

BreakDown

e-------------|
B-------------|
G--9--7--5--7-|
D--9--7--5--7-|x2
A--7--5--3--5-|
E-------------|

e--------------------------------------------|
B--------------------------------------------|
G--9999/11\9--7777/9\7--5555/7\5--4444/5/7---|
D--xxxx x  x--xxxx x x--xxxx x x--xxxx x x---|
A--7777/9 \7--5555/7\5--3333/5\3--2222/3/5---|
E--------------------------------------------|


Intro For The Rest
Tap to rate this tab
 
# A B C D E F G H I J K L M N O P Q R S T U V W X Y Z