Song name
# A B C D E F G H I J K L M N O P Q R S T U V W X Y Z

Slightly Stoopid - Violence Ftp tab

Help us improve GuitareTab! Take a short survey!
Not sure if this is right, but I couldn't find it anywhere and decided to try to tab it myself.

Intro: (Clean)

         E7         D7         A7          D7
e|----7-7-x-x-7---5-5-x-x-5---5-5-5555---5-5-5-5-5-|
B|----9-9-x-x-9---7-7-x-x-7---5-5-5555---7-7-7-7-7-|
G|----7-7-x-x-7---5-5-x-x-5---6-6-6666---5-5-5-5-5-|
D|----9-9-x-x-9---7-7-x-x-7---5-5-5555---7-7-7-7-7-|
A|----7-7-x-x-7---5-5-x-x-5---7-7-7777---5-5-5-5-5-|
E|----------------------------5-5-5555-------------|


         E7         D7          A   G   E
e|----7-7-x-x-7---5-5-x-x-5-----------------|
B|----9-9-x-x-9---7-7-x-x-7-----------------|
G|----7-7-x-x-7---5-5-x-x-5-----------------|
D|----9-9-x-x-9---7-7-x-x-7-----7---5---2---|
A|----7-7-x-x-7---5-5-x-x-5-----7---5---2---|
E|------------------------------5---3---0---|

Next Part: (Distortion)

e|---10h12----------------------|
B|----------8h10----------9p7---|
G|----------------7h9-----9p7---|
D|----------------------------9-|
A|------------------------------|
E|------------------------------| x4


e|------------------10~~-12b--10h12p10--------------------------|
B|------------10h12--------------------12-10-12-10--------------|
G|-----7h9s11--------------------------------------11-9s7-------|
D|-7h9----------------------------------------------------9-7---|
A|--------------------------------------------------------------|>
E|--------------------------------------------------------------| >
                                                                   >
e|------------------10~~-17b--15h17p15----------------------------| > play
B|------------10h12--------------------17-15-17-15----------------|>these 
G|-----7h9s11--------------------------------------16-14s12-------|two parts
D|-7h9------------------------------------------------------14-12-|  twice
A|----------------------------------------------------------------|
E|----------------------------------------------------------------|

Heavy Riff: (Mucho Distortion)
      E       D      A       D      E       D      A  G  E
e|----------------------------------------------------------| |---------|
B|----------------------------------------------------------| |---------|
G|--9-9-9---77-7-----------77-7---9-9-9---77-7--xx----------| |---------|
D|--9-9-9---77-7---7-7-7---77-7---9-9-9---77-7--xx-7--5--2--| |---------|
A|--7-7-7---55-5---7-7-7---55-5---7-7-7---55-5--xx-7--5--2--| |---------|
E|-----------------5-5-5---------------------------5--3--0--| |-0-3-0-3-|

e|----------------------------------------------------------| 
B|----------------------------------------------------------| 
G|--9-9-9---77-7-----------77-7---9-9-9---77-7--xx----------| 
D|--9-9-9---77-7---7-7-7---77-7---9-9-9---77-7--xx-7--5--2--| 
A|--7-7-7---55-5---7-7-7---55-5---7-7-7---55-5--xx-7--5--2--| 
E|-----------------5-5-5---------------------------5--3--0--| 
____________________________________________________________________________

  FTP

e|-----------------------------------|
B|-----------------------------------|
G|-----------------------------------|
D|----2-2------------------------2-2-|
A|---------5s4s5s4--2h4p2------------|
E|--0----------------------3--0------| repeat many times
Related for Violence Ftp tab