Song name
# A B C D E F G H I J K L M N O P Q R S T U V W X Y Z

Slightly Stoopid - Wiseman tab

Acoustic Roots Version:
 
 Intro:

         C              G                   D             Em    
e|-------8---8----------3---------3---------5-555---------7--7---|
B|-------8---8----------3---------3---------7-777---------8--8---|
G|-------9---9----------4---------4---------7-777---------9--9---|
D|-------10--10---------5---------5---------7-777---------9--9---|
A|-------10--10---------5---5--5--5--/5--5--5-555---7--7--7--7---|
E|-8--8--8---8----3--3--3---------3------------------------------|

e|--------8-----------8---------3--3---------5--------5---------7--|
B|--------8-----------8---------3--3---------7--------7---------8--|
G|--------9-----------9---------4--4---------7--------7---------9--|
D|--------10----------10--------5--5---------7--7--7--7---------9--|
A|--------10--10--10--10--------5--5---5--5--5--------5---7--7--7--|
E|--8--8--8-----------8---3--3--3--3-------------------------------|


Verse: Em C G D


 Bridge:

    Em   C    G    D
e|--o----o----3----2---|
B|--o----1----o----3---|
G|--o----o----o----2---|
D|--2----2----o----o---|
A|--2----3----2--------|
E|--o---------3--------|


 Chorus:


e|--7---8----7---8----5--|
B|--8---8----8---8----7--|
G|--9---9----9---9----7--|
D|--9---10---9---10---7--|
A|--7---10---7---10---5--|
E|------8--------8-------|.. Repeat


 Outro:


e|-------------pm----------------pm------------pm-------------------------|
B|-------------pm----------------pm------------pm-------------------------|
G|-------------pm----------------pm------------pm-------------555--4/5\4--|
D|-------------pm----------------pm------------pm---------777-------------|
A|--5/7-7------pm----------10-10-pm--------5-5-pm--3/5-55-----------------|
E|--------o--o-pm--7/8-888-------pm--2/3-33----pm-------------------------|

Repeat accordingly, strum some bar chord structures to match the recording. 
                                                                     

 Ending:


e|--7---8----7--7h9p7----7--|
B|--8---8----8--------9--8--|
G|--9---9----9-----------7--|
D|--9---10---9--------------|
A|--7---10---7--------------|
E|------8-------------------|


Listen to the recording to figure out all of the little stuff. 
All criticism welcome. Enjoy!
Tap to rate this tab
# A B C D E F G H I J K L M N O P Q R S T U V W X Y Z