Song name
# A B C D E F G H I J K L M N O P Q R S T U V W X Y Z

Slightly Stoopid - Shoobie tab

 feat toko tasi

Chorus:

--x---------------------2--2--2--x---------------------2--4p2-----------------|
--4---------------------2--2--2--4---------------------2-------2--4p2---------|
--4---------------------3--2--2--4---------------------3-------2-------2h4--2-|
--4---------------------4--2--2--4---------------------4-------2-------2----2-|
--2-----------2h4p2-----4--0--0--2-----------2h4p2-----4-------0--------------|
--x--0--2--4---------4--2--x--x--x--0--2--4---------4--2-------x--------------|

Verse:

--x--x--x--------------------------2--2--2-------------------|
--4--4--4--------------------------2--2--2-------------------|
--4--4--4--------------------------2--2--2-----1-------------|
--4--4--4-----1--1--1--4--4--4--1--2--2--2--2-----2----------|
--2--2--2--2-----------------------0--0--0-----------0--1----|
--x--x--x--------------------------x--x--x-------------------|

Pre-Chorus:

--x--2--x--0----------------------------------------------------------|
--4--2--2--0--2--3--4--4--7--4----------------------------------------|
--4--3--2--1--2--3--4--4--------6--4--6--4----------------------------|
--4--4--2--2--------------------------------6--4--6--4----------------|
--2--4--0--2--------2--2--------------------------------6--4--6--4----|
--x--2--x--0--------------------------------------------------------7-|
Tap to rate this tab
# A B C D E F G H I J K L M N O P Q R S T U V W X Y Z