Song name
# A B C D E F G H I J K L M N O P Q R S T U V W X Y Z

Slightly Stoopid - Reward For Me tab

here's the bare parts, figure out the strumming, it's pretty easy

would love if someone wanted to tab out all the guitars, this is just two of them

guitar 1
part 1
     c    d    g
e|---0----2----3---------|
B|---1----3----3---------|
G|---0----2----0---------|
D|---2----0----0---------|
A|---3---------2---------|
E|---x---------3---------|

part 2
     c    d
e|---0----2-2-3-2-0-2---|
B|---1----3-3-3-3-3-3---|
G|---0----2-2-2-2-2-2---|
D|---2----0-0-0-0-0-0---|
A|---3------------------|
E|---x------------------|

guitar 2

part 1
e|---8-----10------7---|
B|---8-----10------8---|
G|---9-----0-------7---|
D|---------------------|
A|---------------------|
E|---------------------|

part 2
e|---8--/10------------|  
B|---8--/10------------|
G|---9--/11------------|
D|---------------------|
A|---------------------| 
E|---------------------|     
Tap to rate this tab
 
# A B C D E F G H I J K L M N O P Q R S T U V W X Y Z