Song name
# A B C D E F G H I J K L M N O P Q R S T U V W X Y Z

Slightly Stoopid - Tribulation tab

I only tabbed out the main bass line in a guitar form.  Note the standard E string 
is dropped down to D
Figure the beat out on your own

E|------------------------------------------------------------------------|
B|------------------------------------------------------------------------|
G|------------------------------------------------------------------------|
D|------------------------------------------------------------------------|
A|---------7-7-7-7----4---0-----------5-5-5-5---2---5---------------------|
D|--7---7----------------------5---5--------------------------------------|

E|--------------------------|
B|--------------------------|
G|--------------------------|
D|--------------------------|
A|---------7-7-7-7----4---0-|
D|--7---7-------------------|
Tap to rate this tab
# A B C D E F G H I J K L M N O P Q R S T U V W X Y Z