Song name
# A B C D E F G H I J K L M N O P Q R S T U V W X Y Z

Slightly Stoopid - 2 Am chords

Highlighted       Show chord diagrams
-------------------------------------------------------------------------------
			     2AM - Slightly Stoopid
-------------------------------------------------------------------------------
Tabbed by:Croady
Email: Croady@yahoo.com

Tuning: Standard

The whole song is G and A it is extremely simple for the fills just make it up.

       G       A
e|-----3-------5-------------------------------------------------------------|
B|-----3-------5-------------------------------------------------------------|
G|-----4-------6-------------------------------------------------------------|
D|-----5-------7-------------------------------------------------------------|
A|-----5-------7-------------------------------------------------------------|
E|-----3-------5-------------------------------------------------------------|

Tap to rate this tab
 
# A B C D E F G H I J K L M N O P Q R S T U V W X Y Z