Song name
# A B C D E F G H I J K L M N O P Q R S T U V W X Y Z

Slightly Stoopid - Train 1 tab

e-----11-9---------------11-9-------------------12-10------12p10-------------|
b---------12-10--------------12-10---------9/10-------14-12-----12p10-12p10--|
g-7/9----------------7/9-----------13-11-------------------------------------|
d----------------------------------------------------------------------------|
a----------------------------------------------------------------------------|
e----------------------------------------------------------------------------|

e------------------------------|l
b------------------------------|l
g-13p11-13p11------------------|l
d-------------15p13-15p13---l--| x2
a------------------------16----|l
e---------------------------1--|

Ending to intro
e-9--13-13-13-13-11-9--12--16-16-16-16-14-12--7--11-11-11-11-9-7--9-----|l
b-9--------------------12---------------------7-------------------11----|l
g-8--------------------13---------------------8-------------------9-----|l
d-9--------------------12---------------------9-------------------11----|l
a-11-------------------14---------------------9-------------------9-----|l
e-9--------------------12---------------------7-------------------------|l

Verse Chords - B major   E7 B major E7, Eb7, D7 (he slides down those then goes back up
a B major) Then its the same thing again so the whole verse progression is BM, E7, BM
Eb7, D7, BM, E7, Eb7, D7, Db7, E7, BM, F#7. Just listen for the timing and the changes. 
repeats the intro riff then another verse and then the solo hich is right here

e-11-11-11-11-11------11-11-11-11-9-7---7/9----10/12-12-12-12-10/12-12-12-12-|
b-10-10-10-10-10------10-10-10-10-9-7---7/9----7/-9--9--9--9--7/-9--9--9--9--|
g-11-11-11-11-11------11-11-11-11-9-8---8/10---7/-9--9--9--9--7/-9--9--9--9--|
d----------------------------------------------7/-9--9--9--9--7/-9--9--9--9--|
a----------------------------------------------------------------------------|
e----------------------------------------------------------------------------|

e-10/12-12-12-11--------|l
b-7/-9--9--9--8---------|l
g-7/-9--9--9--8---------|l
d-7/-9--9--9--8---l-----| x2
a-----------------------|l
e-----------------------|l

And then

e-9  strum fast e-12  strum fast e-7-|  strum fast then repeat the whole thing
b-9             b-12             b-7-|  and end on an open E7 and that's it,
g-10            g-13             g-8-|  enjoy!
d-9             d-12             d-7-|
a-11            a-14             a-9-|
e-9             e-12             e-7-|
Tap to rate this tab
 
# A B C D E F G H I J K L M N O P Q R S T U V W X Y Z